Oops, an error
Loading. Please wait.

En La Oscuridad chords

version 2
version 2

Whole song

95 views 1 this week
no commentswrite comment
1 2 3 4 5
3 more votes to show rating
add to favorites
×
Save as Personal and add changes to this tab that will be seen only by you. Learn more ›
×
You can save this tab as Personal to edit and correct it or add notes. All changes will be seen only by you. Learn more »
launch autoscroll
font size
0
reset
transpose
0
reset
simplify chords
display chords
guitar tuner
edit
Autoscroll
slow
fast
+/-
esc
set tempo
stop
Strumming
There is no strumming pattern for this song yet. and get +5 IQ
Hola La Cuerda les dejo la versión EN VIVO de ésta canción, es un poco
diferente a la versión de estudio, además de estar medio tono abajo.


Intro:

B9  C9   C#m9 C#m7 F#m7    C#m9 C#m7 F#m7 B9


        C#m9 C#m7          F#m7
En la oscuridad, en la que me dejé vencer
         C#m9 C#m7       F#m7     B9
Vuelvo a recordar, presa del atardecer
      G#m7(b5)                   C#7(b9)
Y encerrada en mi memoria quedan gotas del silencio
        F#m7        B9
Que nos vio ceder


        C#m9 C#m7     F#m7
En la oscuridad, descubriendo los engaños
     C#m9 C#m7      F#m7           B9
Déjame llorar, conseguiste hacerme daño
      G#m7(b5)                 C#7(b9)
Tanta luz que prometías, se quebró como los días
    F#m7              Bm7    E9
Al anochecer y estaba tan perdida


Amaj7       G#aug       C#m7          Bm7   E9
Déjame continuar con mi vida, yo no puedo jugar
Amaj7        G#aug   C#m7    Bm7   E9
No volveré a caer jamás
Amaj7       G#aug     C#m7            Bm7   E9
Déjame conservar la belleza de esta oscuridad
      Amaj7        G#aug   C#m7   F#7   B9
Donde no volveré a caer jamás


        C#m9 C#m7   F#m7
En la oscuridad, anulaste mis sentidos
      C#m9 C#m7     F#m7          B9
Diste soledad, recompensa de tu olvido
      G#m7(b5)                 C#7(b9)
Tanta luz que prometías, se quebró como los días
        F#m7          Bm7    E9
Que he visto caer, oh no no...


Amaj7       G#aug       C#m7          Bm7   E9
Déjame continuar con mi vida, yo no puedo jugar
Amaj7        G#aug   C#m7    Bm7   E9
No volveré a caer jamás
Amaj7       G#aug     C#m7            Bm7   E9
Déjame conservar la belleza de esta oscuridad
      Amaj7        G#aug   Gmaj7   B9
Donde no volveré a caer jamás


Solo:
         C#9  C#m7          F#m7         C#m9    C#m7    F#m7
e *------------------------------------------------------------
B *------------------5-----------------------------------------
G *------6-4-------6----6-4------------------------------4-----
D *--3s4--------------------5p4--------------6-----5s6-----6-7-
A *----------------------------------7p6--4----4-4-------------
E *------------------------------------------------------------

                          C#m9       C#m7  F#m7    B9
e --------4-7--4----------4------------------12s11-11s9---9s7--*
B ------5--------7----5h7-5h7--5-5---4h5-----------------------*
G --4h6------------------------6-6---4h6-----9s8---8s6----6s4--*
D -------------------------------------------------------------*
A -------------------------------------------------------------*
E -------------------------------------------------------------*


    G#m7(b5)                   C#7(b9)
Golpeando los instintos, voy abriéndome camino
          F#m7            Bm7        E9
Hacia la realidad, siento que estoy,    que estoy viva


Amaj7       G#aug       C#m7          Bm7   E9
Déjame continuar con mi vida, yo no puedo jugar
Amaj7        G#aug   C#m7    Bm7   E9
No volveré a caer jamás
Amaj7       G#aug     C#m7            Bm7   E9
Déjame conservar la belleza de esta oscuridad
      Amaj7        G#aug   C#m7   Bm7   E9
Donde no volveré a caer jamás


Amaj7       G#aug       C#m7          Bm7   E9
Déjame continuar con mi vida, yo no puedo jugar
Amaj7        G#aug   C#m7    Bm7   E9
No volveré a caer jamás
Amaj7       G#aug     C#m7            Bm7   E9
Déjame conservar la belleza de esta oscuridad
      Amaj7        G#aug   C#m7   Bm7   E9
Donde no volveré a caer jamás


Amaj7  G#aug   C#m7  Bm7  E9

Amaj7        G#aug   C#m7    Bm7   E9
No volveré a caer jamás

Amaj7  G#aug   C#m7  Bm7  E9

      Amaj7        G#aug   C#m7   F#7   B9    C#m9 C#m7
Donde no volveré a caer jamás


Acordes:

e *-----*-----*-----*-----*---------*-------*-----*
B *--2--*--3--*--4--*--5--*----3----*---3---*--7--*
G *--2--*--3--*--4--*--4--*----4----*---4---*--7--*
D *--1--*--2--*--2--*--2--*----4----*---3---*--6--*
A *--2--*--3--*--4--*--4--*---------*---4---*--7--*
E *-----*-----*-----*-----*----4----*-------*-----*
     B9    C9  C#m9  C#m7   G#m7(b5) C#7(b9)  E9


e *-----*-------*-----*
B *--5--*---5---*--3--*
G *--6--*---5---*--4--*
D *--6--*---6---*--4--*
A *-----*-------*-----*
E *--5--*---4---*--3--*
   Amaj7  G#aug  Gmaj7


Calquier duda, comentario o petición háganla al mail: hectorprs@

            
            
Suggest correction
Creating personal tab
Creating personal tab
You can edit any tab online and save it as your Personal.

You can edit, replace or remove any tab part or add personal notes – all changes will be seen only by you.

Personal tabs can be accessed anytime from any device, even offline.
Learn more »
Give kudos to tab author, rate the tab!
1 2 3 4 5
comments
print report bad tab
guest
Wanna post a correction for this tab? Suggest correction