Oops, an error
Loading. Please wait.

Where Were You chords

133 views 6 this week
no commentswrite comment
1 2 3 4 5
2 more votes to show rating
add to favorites
×
Save as Personal and add changes to this tab that will be seen only by you. Learn more ›
×
You can save this tab as Personal to edit and correct it or add notes. All changes will be seen only by you. Learn more »
launch autoscroll
font size
0
reset
transpose
0
reset
display chords
guitar tuner
edit
Autoscroll
slow
fast
+/-
esc
set tempo
stop
Strumming
There is no strumming pattern for this song yet. and get +5 IQ
Pretty Archie - Where Were You?
Album - Sing Alongs & Love Songs (2016)
Tab by brennangillis@hotmail.com

Standard Tuning / Capo 2

---
[Intro]
D  D  C G
D  D  C C

(intro picking - not 100%)
e|---------------------------------------------------------------------|
B|-12-12---10-12-12----12-12-14-12-10----------------9/10--------------|
G|------------------------------------11--11-11-11-9-------------------|
D|---------------------------------------------------------------------|
A|---------------------------------------------------------------------|
E|---------------------------------------------------------------------|

e|----------------------------------------------------------------------------|
B|-12-12---10-12-12----12-12-14-12-10-----------------------------------------|
G|------------------------------------11--11-11-11-13-13-13-13-14-14-14-13-11-|
D|----------------------------------------------------------------------------|
A|----------------------------------------------------------------------------|
E|----------------------------------------------------------------------------|

[Verse 1]
G   Em              D          C           G
I'm getting back at you, be a hard act to follow
       Em                D                  C                  G
Bit of more than I could chew, and that's a tough pill to swallow
          Em          D              C                 G
When the lines get confused, got me feelin' cold and hollow
           Em          D               C
And when a lover gets used, it makes a cold desperado.

[Chorus]
D                          C         G
Where were you when I was out of my mind
     F#m  Em     D          C          D
You had a better line on a better time
                        C                 G
You had to choose, whoa somebody had to loose
  F#m Em                D           C
      I'm waking up to second best blues

[Verse 2]
G        Em               D         C                    G
Started changin' my old habits to suit your every need
       Em               D      C                    G
If you want it you can have it now it's haunting me
      Em               D           C                          G
I forgot just where I started, i forgot what brought me here
      Em              D                C
But I head out brokenhearted, oh the feelings disappeared

[Chorus]
D                          C         G
Where were you when I was out of my mind
     F#m  Em     D          C          D
You had a better line on a better time
                        C                 G
You had to choose, whoa somebody had to loose
  F#m Em                D           C
      I'm waking up to second best blues

[Bridge]
Em     D                   C
Maybe someday soon you'll miss me (Maybe someday soon you'll miss me)
Em     D               C
Maybe you'll forget my name (Maybe you'll forget my name)
Em     D                 C
Maybe you'll like living care free (Maybe You'll like living care free)
Em          D             C
Learned my lesson all the same.

[Chorus] x2
D                          C         G
Where were you when I was out of my mind
     F#m  Em     D          C          D
You had a better line on a better time
                        C                 G
You had to choose, whoa somebody had to loose
  F#m Em                D           C
      I'm waking up to second best blues

            
            
Suggest correction
Creating personal tab
Creating personal tab
You can edit any tab online and save it as your Personal.

You can edit, replace or remove any tab part or add personal notes – all changes will be seen only by you.

Personal tabs can be accessed anytime from any device, even offline.
Learn more »
Give kudos to tab author, rate the tab!
1 2 3 4 5
comments
print report bad tab
guest
You may want to rate the tab now too:
select rating
Wanna post a correction for this tab? Suggest correction