Oops, an error
Loading. Please wait.

Finally Moving intro tab

version 1
version 1

Intro

  • The other versions over-complicated the riff, when it's just as simple as this.

Whole song

61,576 views 63 this week
4 commentsread comments
1 2 3 4 5
x 39
add to favorites
×
Save as Personal and add changes to this tab that will be seen only by you. Learn more ›
×
You can save this tab as Personal to edit and correct it or add notes. All changes will be seen only by you. Learn more »
launch autoscroll
font size
0
reset
how to read this tab
guitar tuner
edit
Autoscroll
slow
fast
+/-
esc
set tempo
stop
Author
Difficulty
intermediate
Repeat this part pretty much the whole song
e|-----------------------------------------------------|
B|--5---4h5p4-0-2-------------5---4h5p4-0-2------------|
G|--6-------------------------6------------------------|
D|--6-------------------------6------------------------| 
A|-4---2------2-0-0-0-2-2-3--4---2------2-0-0-0-2-2-3-4|
E|-----------------------------------------------------|


************************************

| h  Hammer-on
| p  Pull-off

************************************

            
            
Suggest correction
Creating personal tab
Creating personal tab
You can edit any tab online and save it as your Personal.

You can edit, replace or remove any tab part or add personal notes – all changes will be seen only by you.

Personal tabs can be accessed anytime from any device, even offline.
Learn more »
comments
print report bad tab
4 comments total. Showing first comments.
+5 reply
fujifisher 30 Jan 06, 2012 02:37 PM

This tab is correct, but it's much easier to play it with a capo on the 2nd fret! Here it is with a few minor changes to play it with a capo.

e|-----------------------------------------------------|
B|--3---2h3p2---0-------------3---2h3p2---0------------|
G|--4---------4---------------4---------4--------------|
D|--4-------------------------4------------------------|
A|-2---0------0-------0-0-1--2---0------0-------0-0-1-2|
E|--------------3-3-3---------------------3-3-3--------|

0 reply
valkyrie ta 10 Jan 14, 2012 04:06 PM

e|-----------------------------------------------------|
B|-----------------------------------------------------|
G|-----------------------------------------------------|
D|--------2---------2--------2-------------------------|
A|--2-4-6-----2-4-6----2-4-6---------------------------|
E|-----------------------------------------------------|

The strings :)

0 reply
partipoper32 30 May 01, 2012 07:47 PM

e|-----------------------------------------------------|
B|--5---4h5p4-0-2-------------5---4h5p4-0-2------------|
G|--6-----------2--------------6-----------2-------------|
D|--6-----------2-2-2-4-4-5---------6-----2-2-2-4-4-5--------------|
A|-4---2------2-0-0-0-2-2-3--4---2------2-0-0-0-2-2-3-4|
E|-----------------------------------------------------|

guest
You may want to rate the tab now too:
select rating
Wanna post a correction for this tab? Suggest correction