Oops, an error
Loading. Please wait.

Shakes tab

version 1
version 1

Whole song

1,839 views 1 this week
2 commentsread comments
1 2 3 4 5
x 3
add to favorites
×
Save as Personal and add changes to this tab that will be seen only by you. Learn more ›
×
You can save this tab as Personal to edit and correct it or add notes. All changes will be seen only by you. Learn more »
launch autoscroll
font size
0
reset
how to read this tab
guitar tuner
edit
Autoscroll
slow
fast
+/-
esc
set tempo
stop
Author
Difficulty
Song: The Shakes
Artist: Priestess
Album: Hello Master

Tabbed By: Karl Schmaltz
E-Mail: (karl_schmaltz@hotmail.com

Intro
E|-----------|
B|-----------|
G|-----7-----|
D|-7-5-7-7---|
A|-7-5-5-7---|
E|-5-3---5---|

Verse – X2
E|-----------------------------------------|
B|-----------------------------------------|
G|-----------------------------------------|
D|-5/7--5/7—-5/7--5/7—-5/7—-5/7—-5/7—-5/7--|
A|-5/7—-5/7—-5/7--5/7—-5/7—-5/7—-5/7—-5/7--|
E|-3/5—-3/5—-3/5—-3/5—-3/5--3/5—-3/5—-3/5--|

Verse – X2
E|---------------------------------------------|
B|---------------------------------------------|
G|---------------------------------------------|
D|-----5/7--5/7—-5/7--5/7—-5/7—-5/7—-5/7—-5/7--|
A|-----5/7—-5/7—-5/7--5/7—-5/7—-5/7—-5/7—-5/7--|
E|-~5~-3/5—-3/5—-3/5—-3/5—-3/5--3/5—-3/5—-3/5--|

Lead – X2
E|---------------------------|
B|---------------------------|
G|---------------------------|
D|-7-5-77-5-7----7-5-77-5-7--|
A|-7-5-77-5-7----7-5-77-5-7--|
E|-5-3-55-3-5----5-3-55-3-5--|

Verse – X4
E|-----------------------------------------|
B|-----------------------------------------|
G|-----------------------------------------|
D|-5/7--5/7—-5/7--5/7—-5/7—-5/7—-5/7—-5/7--|
A|-5/7—-5/7—-5/7--5/7—-5/7—-5/7—-5/7—-5/7--|
E|-3/5—-3/5—-3/5—-3/5—-3/5--3/5—-3/5—-3/5--|

Chorus – X4
E|-------------------------------|
B|-------------------------------|
G|-----7-------------------------|
D|-7-5-7-7--7-7-7--5-5-5--7-7-7--|
A|-7-5-5-7--7-7-7--5-5-5--7-7-7--|
E|-5-3---5--5-5-5--3-3-3--5-5-5--|

Intro
E|-----------------|
B|-----------------|
G|-----------------|
D|-5/7-5/7-5/7-5/7-|
A|-5/7-5/7-5/7-5/7-|
E|-3/5-3/5-3/5-3/5-|

Verse – X4
E|-----------------------------------------|
B|-----------------------------------------|
G|-----------------------------------------|
D|-5/7--5/7—-5/7--5/7—-5/7—-5/7—-5/7—-5/7--|
A|-5/7—-5/7—-5/7--5/7—-5/7—-5/7—-5/7—-5/7--|
E|-3/5—-3/5—-3/5—-3/5—-3/5--3/5—-3/5—-3/5--|

Chorus – X4
E|-------------------------------|
B|-------------------------------|
G|-----7-------------------------|
D|-7-5-7-7--7-7-7--5-5-5--7-7-7--|
A|-7-5-5-7--7-7-7--5-5-5--7-7-7--|
E|-5-3---5--5-5-5--3-3-3--5-5-5--|

Intro
E|-----------|
B|-----------|
G|-----7-----|
D|-7-5-7-7---|
A|-7-5-5-7---|
E|-5-3---5---|

I Did Not Figure Out The Solo Sorry Use The Verse During The Solo
Verse – X4
E|-----------------------------------------|
B|-----------------------------------------|
G|-----------------------------------------|
D|-5/7--5/7—-5/7--5/7—-5/7—-5/7—-5/7—-5/7--|
A|-5/7—-5/7—-5/7--5/7—-5/7—-5/7—-5/7—-5/7--|
E|-3/5—-3/5—-3/5—-3/5—-3/5--3/5—-3/5—-3/5--|


E|-------------------|
B|-------------------|
G|-------------------|
D|-7-7-7-7-7-7-7-7-7-|
A|-7-7-7-7-7-7-7-7-7-|
E|-5-5-5-5-5-5-5-5-5-|

Lead – X1
E|---------------|
B|---------------|
G|---------------|
D|-7-5-77-5-7----|
A|-7-5-77-5-7----|
E|-5-3-55-3-5----|

Chorus – X4
E|-------------------------------|
B|-------------------------------|
G|-----7-------------------------|
D|-7-5-7-7--7-7-7--5-5-5--7-7-7--|
A|-7-5-5-7--7-7-7--5-5-5--7-7-7--|
E|-5-3---5--5-5-5--3-3-3--5-5-5--|

Lead – X3
E|---------------|
B|---------------|
G|---------------|
D|-7-5-77-5-7----|
A|-7-5-77-5-7----|
E|-5-3-55-3-5----|

E|-------------------|
B|-------------------|
G|-----7-------------|
D|-7-5-7-----10--7---|
A|-7-5-5-----10--7---|
E|-5-3--------8--5---|


            
            
Suggest correction
Creating personal tab
Creating personal tab
You can edit any tab online and save it as your Personal.

You can edit, replace or remove any tab part or add personal notes – all changes will be seen only by you.

Personal tabs can be accessed anytime from any device, even offline.
Learn more »
Give kudos to tab author, rate the tab!
1 2 3 4 5
comments
print report bad tab
2 comments total.
0 reply
RATicuZZ 10 Oct 04, 2007 10:37 AM

is this all tuned one step up or summatt?

but yeah lovely tab

0 reply
AToolCircle93 10 Aug 14, 2008 04:49 PM

E|-------------------------------------------------------------|
B|-------------------------------------------------------------|
G|-------------------------------------------------------------|
D|-----5-5-7--5-5-7—-5-5-7--5-5-7—-5-5-7—-5-5-7—-5-5-7—-5-5-7--|
A|-----5-5-7—-5-5-7—-5-5-7--5-5-7—-5-5-7—-5-5-7—-5-5-7—-5-5-7--|
E|-~5~-3-3-5—-3-3-5—-3-3-5—-3-3-5—-3-3-5--3-3-5—-3-3-5—-3-3-5--|

Lead – X2
E|---------------------------|
B|---------------------------|
G|---------------------------|
D|-7-5-77-5-9----7-5-77-5-9--|
A|-7-5-77-5-9----7-5-77-5-9--|
E|-5-3-55-3-7----5-3-55-3-7--|

I think those parts may go as I have corrected, forgive me if I'm wrong.

guest
You may want to rate the tab now too:
select rating
Wanna post a correction for this tab? Suggest correction