Oops, an error
Loading. Please wait.

Cant Go Back bass

version 2
version 2

Whole song

3,997 views 1 this week
no commentswrite comment
1 2 3 4 5
2 more votes to show rating
add to favorites
×
Save as Personal and add changes to this tab that will be seen only by you. Learn more ›
×
You can save this tab as Personal to edit and correct it or add notes. All changes will be seen only by you. Learn more »
launch autoscroll
font size
0
reset
guitar tuner
edit
Autoscroll
slow
fast
+/-
esc
set tempo
stop
Author
-------------------------------------------------------------------------------
			     Can't Go Back - Primal Scream
-------------------------------------------------------------------------------

Tabbed By : Stuarttt-1
e-mail: stuart_d_93@hotmail.co.uk

Tuning: Standard


INTRO
G|---------------------------------------------------------------------------|
D|------------------------7-------------------7-7-7------7-------------------|
A|--7-77777-10-10-10-7-10---------------------------7-10---------------------|
E|--------------------------10-10-10-10-10-10--------------------------------|

G|---------------------------------------------------------------------------|
D|------------------------7-------------------7-7-7------7-------------------|
A|--7-77777-10-10-10-7-10---------------------------7-10---------------------|
E|--------------------------10-10-10-10-10-10--------------------------------|


VERSE FOLLOWS SAME PATTERN (4 TIMES)

CHORUS
G|---------------------------------------------------------------------------|
D|------------------------7-------------------7-7-7------7-------------------|
A|--7-77777-10-10-10-7-10---------------------------7-10---------------------|
E|--------------------------10-10-10-10-10-10--------------------------------|

G|---------------------------------------------------------------------------|
D|------------------------7-------------------7-7-7------7-------------------|
A|--7-77777-10-10-10-7-10---------------------------7-10---------------------|
E|--------------------------10-10-10-10-10-10--------------------------------|

G|---------------------------------------------------------------------------|
D|------------------------7-------------------7-7-7------7-------------------|
A|--7-77777-10-10-10-7-10---------------------------7-10---------------------|
E|--------------------------10-10-10-10-10-10--------------------------------|

G|---------------------------------------------------------------------------|
D|------------------------7-------------------7-7-7------7-77-77-77-77-7777--|
A|--7-77777-10-10-10-7-10---------------------------7-10---------------------|
E|--------------------------10-10-10-10-10-10--------------------------------|

REPEAT VERSE

THEN CHOURS AGAIN

CHORUS GOES INTO GUITAR SOLO, PLAY MAIN RIFF

AFTER SOLO, MAIN RIFF PLAYS TWICE

GOES INTO CHOURS

CHORUS RIFF TILL END.

I looked into my baby's eyes
I've tried so hard to find some light
When I looked there was no-one there
No-one there at all
For what I did I cry the street
I had somebody tied to me
When I tried to draw breath to speak
There was no-one there at all

Can't go back
I can't go back
Can't go back
I can't go back
Can't go back
I can't go back
To the place I was before (x2)

I stick a needle in my arm
I stick it in my baby's heart
She looked so hot and sexy
She wasn't there at all
I had someone back in my hands
They had a gun, they had a knife
It was all off behind my eyes
There was no-one there at all

Can't go back
I can't go back
Can't go back
I can't go back
Can't go back
I can't go back
To the place I was before (x2)

Let's go

My baby looked into my eyes
She tried so hard to find some light
But when she looked there was no-one there
No-one there at all

Can't go back
I can't go back
Can't go back
I can't go back
Can't go back
I can't go back
To the place I was before (x3) 

| /  slide up
| \  slide down
| h  hammer-on
| p  pull-off
| ~  vibrato
| +  harmonic
| x  Mute note
===============================================================================

            
            
Suggest correction
Creating personal tab
Creating personal tab
You can edit any tab online and save it as your Personal.

You can edit, replace or remove any tab part or add personal notes – all changes will be seen only by you.

Personal tabs can be accessed anytime from any device, even offline.
Learn more »
Give kudos to tab author, rate the tab!
1 2 3 4 5
comments
print report bad tab
guest
You may want to rate the tab now too:
select rating
Wanna post a correction for this tab? Suggest correction