Oops, an error
Loading. Please wait.

Las Siete Maravillas tab

35 views 1 this week
no commentswrite comment
1 2 3 4 5
3 more votes to show rating
add to favorites
×
Save as Personal and add changes to this tab that will be seen only by you. Learn more ›
×
You can save this tab as Personal to edit and correct it or add notes. All changes will be seen only by you. Learn more »
launch autoscroll
font size
0
reset
how to read this tab
guitar tuner
edit
Autoscroll
slow
fast
+/-
esc
set tempo
stop
Intro: A - F#m - C#m - E
              A - F#m - C#m - G

e|----------------------------------------------|
B|------------2-3-2-0---0--2-2-2-2-5-7-5-3-2-0--|
G|---2-2-2-2----------2-------------------------|
D|----------------------------------------------|
A|----------------------------------------------|
E|----------------------------------------------|

e|----------------------------------------------|
B|------------2-3-2-0---0--2-2-2-2-5-7-5-5------|
G|---2-2-2-2----------2-------------------------|
D|----------------------------------------------|
A|----------------------------------------------|
E|----------------------------------------------|

A
   Detras de la ciudad
D7M*          D*
   se puede ir a buscar
Asus2         Eadd11
   las siete maravillas
F#m   C#7   F#m   E7 Bm-Aadd9-D
   locura excepcional


A
   sabores de gustar
D7M*           D*
   de menta y fruta igual
Asus2        Eadd11
   que sincronizan tanto
F#m    C#7  F#m  E7 Bm-Aadd9-E7
   las aves al volar


A - F#m - C#m - E
A - F#m - C#m - E     con este espacio se repite lo de la intro

A
   esta el gigante mar
D7M*        D*
   y el diminuto hogar
Asus2       Eadd11
   de miles de siluetas
F#m   C#7  F#m  E7 Bm-Aadd9-E-Esus4-E
   sirenas de metal


  Em      D
y no olvidar
         Em7/F#
ni despreciar
         A5              Em
el beso que me hizo tan bien
          D            D6   G
no puede ser que valga tanto        al final del coro va como un punteo

e|--------------|
B|--2-3-2-0-----|     (X4)
G|-----------2--|

B - G#m - D#m - F#
B - G#m - D#m - F#-G-G#
A - F#m - C#m - E
A - F#m - C#m - E

e|-------------------------------------------------|
B|------------2-4-5-4-2---2--4-4-4-4--7-9-7-5-4-2--|
G|---4-4-4-4------------4--------------------------| (X2)
D|-------------------------------------------------|
A|-------------------------------------------------|
E|-------------------------------------------------|
DEPSUES VIENE EL PUNTEO DE LA INTRO


A     C#m   G   F#m
   dificil resistir
D     Aadd9   Bm     A
   lo que te hace sentir
E7
   el infinito orgullo
F#m - C#7 - F#m - E7 - A6

            
            
Suggest correction
Creating personal tab
Creating personal tab
You can edit any tab online and save it as your Personal.

You can edit, replace or remove any tab part or add personal notes – all changes will be seen only by you.

Personal tabs can be accessed anytime from any device, even offline.
Learn more »
Give kudos to tab author, rate the tab!
1 2 3 4 5
comments
print report bad tab
guest
Wanna post a correction for this tab? Suggest correction