Oops, an error
Loading. Please wait.

As Long As I Remember tab

1,208 views 1 this week
1 commentread comment
1 2 3 4 5
3 more votes to show rating
add to favorites
×
Save as Personal and add changes to this tab that will be seen only by you. Learn more ›
×
You can save this tab as Personal to edit and correct it or add notes. All changes will be seen only by you. Learn more »
launch autoscroll
font size
0
reset
how to read this tab
guitar tuner
edit
Autoscroll
slow
fast
+/-
esc
set tempo
stop
Author
-------------------------------------------------------------------------------
                             As Long As I Remember - Prime Circle
-------------------------------------------------------------------------------
Tabbed by: Erle Vaughan
Email: erle_vaughan@yahoo.com

Can someone do the chorus? 

Tuning:Standard

e||----------------------|----------------------|----------------------|
B||--8---------8---------|----------------------|----------------------|
G||----------------------|--9---------9---------|--9---------9---------|
D||----------------------|----------------------|----------------------|
A||-------7---------7----|----------------------|----------------------|
E||----------------------|-------8---------8----|-------8---------8----|



    
----------------------|----------------------|----------------------|
----------------------|--8---------8---------|----------------------|
--8---------8---------|----------------------|--9---------9---------|
----------------------|----------------------|----------------------|
----------------------|-------7---------7----|----------------------|
-------7---------7----|----------------------|-------8---------8----|


    
----------------------|----------------------|----------------------|
----------------------|----------------------|--8---------8---------|
--9---------9---------|--8---------8---------|----------------------|
----------------------|----------------------|----------------------|
----------------------|----------------------|-------7---------7----|
-------8---------8----|-------7---------7----|----------------------|



  
----------------------|----------------------|----------------------||
----------------------|----------------------|----------------------||
--9---------9---------|--9---------9---------|--8---------8---------||
----------------------|----------------------|----------------------||
----------------------|----------------------|----------------------||
-------8---------8----|-------8---------8----|-------7---------7----||
| /  slide up
| \  slide down
| h  hammer-on
| p  pull-off
| ~  vibrato
| +  harmonic
| x  Mute note
===============================================================================

            
            
Suggest correction
Creating personal tab
Creating personal tab
You can edit any tab online and save it as your Personal.

You can edit, replace or remove any tab part or add personal notes – all changes will be seen only by you.

Personal tabs can be accessed anytime from any device, even offline.
Learn more »
Give kudos to tab author, rate the tab!
1 2 3 4 5
comments
print report bad tab
1 comment total.
0 reply
erle_vaughan 145 Oct 27, 2008 12:54 AM

As Long as i am here

RIFF 1
Em C B
e|---------------------------------------|
B|-8----8--------------------------------|
G|----------9-----9--9-----9---8-----8---|
D|---------------------------------------|
A|-7-7-7--7------------------------------|
E|----------8-8-8--8-8-8-8---8-7-7-7---7-|


VERSE 1

i find that i am shaking from my head down to my feet

MY HANDS ARE SWEATING SO BAD I CAN BEARLY SPEAK

I READ BETWEEN THE LINES HERE BUT DON'T KNOW WHAT TO THINK

IT'S A GUESSING GAME

WAS IT THE FACE? WAS IT THE MOVES?

WAS IT THE WAY THAT SHE JUST KNEW ME?

WAS IT THE MEANING BEHIND EVERY SMILE?

I TRIED TO WALK, LOOK AND LEAVE

HER EYES THEY PIERCED RIGHT THROUGH ME

BUT I DON'T CARE AS LONG AS I AM HERE

CHORUS 1

I CAN NOT MOVE BECAUSE I UNDER HER SPELL

I CAN'T BREATH AS A SIDE EFFECT FROM THIS

AND I KNOW THAT THIS WILL BE THE END OF ME

I CAN NOT MOVE BECAUSE I UNDER HER SPELL

I CAN'T BREATH AS A SIDE EFFECT FROM THIS

AND I DON'T CARE, AS LONG AS I'M HERE


HMMM MMM MMM

WOWWWW

VERSE 2

MY HEADS A MESS WOULDN'T WORK

BUT AT THE SAME TIME I AM CLEVER/(CLEAR OF HER)

AND FEALING SO CONTENT BUT I'M SURE

REACHING OUT REACHING IN

WISH I KNEW WHAT YOU WERE DREAMING

I NEVER WANTED TO EVER LET THIS GO

YEAH

CHORUS 2

I CAN NOT MOVE BECAUSE I UNDER HER SPELL

I CAN'T BREATH AS A SIDE EFFECT FROM THIS

AND I KNOW THAT THIS WILL BE THE END OF ME

I CAN NOT MOVE BECAUSE I UNDER HER SPELL

I CAN'T BREATH AS A SIDE EFFECT FROM THIS

AND I DON'T CARE, AS LONG AS I'M HERE

guest
You may want to rate the tab now too:
select rating
Wanna post a correction for this tab? Suggest correction