Oops, an error
Loading. Please wait.

Tricycle tab

version 2
version 2

Whole song

66 views 1 this week
no commentswrite comment
1 2 3 4 5
3 more votes to show rating
add to favorites
×
Save as Personal and add changes to this tab that will be seen only by you. Learn more ›
×
You can save this tab as Personal to edit and correct it or add notes. All changes will be seen only by you. Learn more »
launch autoscroll
font size
0
reset
how to read this tab
guitar tuner
edit
Autoscroll
slow
fast
+/-
esc
set tempo
stop
-------------------------------------------------------------------------------
                             Tricycle - Primer 55
-------------------------------------------------------------------------------
Tabbed by: Jed
E-mail: stallion269@hotmail.com

Tuning: B F# B E G# C# (Drop B)

(Intro)
Play 2x
C#|---------------------------------------------------------------------------|
G#|---------------------------------------------------------------------------|
E |---------------------------------------------------------------------------|
B |---------------------------------------------------------------------------|
F#|---------------------------------------------------------------------------|
B |----0---0-3-5-6-5-----0---0-3-5-3------------------------------------------|

Slide \
Drums & Bass Kick in

Play 6x
C#|---------------------------------------------------------------------------|
G#|---------------------------------------------------------------------------|
E |---------------------------------------------------------------------------|
B |---------------------------------------------------------------------------|
F#|---------------------------------------------------------------------------|
B |----0---0-3-5-6-5-----0---0-3-5-3------------------------------------------|

(Chorus)
C#|---------------------------------------------------------------------------|
G#|---------------------------------------------------------------------------|
E |---------------------------------------------------------------------------|
B |---7-8-8-8--7-8-8--5--7-7-7--5-7-7-7---------------------------------------|
F#|---7-8-8-8--7-8-8--5--7-7-7--5-7-7-7---------------------------------------|
B |---7-8-8-8--7-8-8--5--7-7-7--5-7-7-7---------------------------------------|


C#|---------------------------------------------------------------------------|
G#|---------------------------------------------------------------------------|
E |---------------------------------------------------------------------------|
B |---7-8-8-8--7-8-8--5--7-7-7--5-7-7-7---------------------------------------|
F#|---7-8-8-8--7-8-8--5--7-7-7--5-7-7-7---------------------------------------|
B |---7-8-8-8--7-8-8--5--7-7-7--5-7-7-7---------------------------------------|


C#|---------------------------------------------------------------------------|
G#|---------------------------------------------------------------------------|
E |---------------------------------------------------------------------------|
B |---7-8-8-8--7-8-8--5--7-7-7--5-7-7-7---------------------------------------|
F#|---7-8-8-8--7-8-8--5--7-7-7--5-7-7-7---------------------------------------|
B |---7-8-8-8--7-8-8--5--7-7-7--5-7-7-7---------------------------------------|


C#|---------------------------------------------------------------------------|
G#|---------------------------------------------------------------------------|
E |---------------------------------------------------------------------------|
B |---7-8-8-8--7-8-8-----5----------------------------------------------------|
F#|---7-8-8-8--7-8-8-----5----------------------------------------------------|
B |---7-8-8-8--7-8-8-----5----------------------------------------------------|

(Verse)
Play 2x
C#|---------------------------------------------------------------------------|
G#|---------------------------------------------------------------------------|
E |---------------------------------------------------------------------------|
B |---------------------------------------------------------------------------|
F#|---------------------------------------------------------------------------|
B |----0---0-3-5-6-5-----0---0-3-5-3------------------------------------------|

Slide \

Play 4x
C#|---------------------------------------------------------------------------|
G#|---------------------------------------------------------------------------|
E |---------------------------------------------------------------------------|
B |---------------------------------------------------------------------------|
F#|---------------------------------------------------------------------------|
B |----0---0-3-5-6-5-----0---0-3-5-3------------------------------------------|


(Chorus)
Play 2x
C#|---------------------------------------------------------------------------|
G#|---------------------------------------------------------------------------|
E |---------------------------------------------------------------------------|
B |---7-8-8-8--7-8-8--5--7-7-7--5-7-7-7---------------------------------------|
F#|---7-8-8-8--7-8-8--5--7-7-7--5-7-7-7---------------------------------------|
B |---7-8-8-8--7-8-8--5--7-7-7--5-7-7-7---------------------------------------|


C#|---------------------------------------------------------------------------|
G#|---------------------------------------------------------------------------|
E |---------------------------------------------------------------------------|
B |---7-8-8-8--7-8-8--5--7-7-7--5-7-7-7---------------------------------------|
F#|---7-8-8-8--7-8-8--5--7-7-7--5-7-7-7---------------------------------------|
B |---7-8-8-8--7-8-8--5--7-7-7--5-7-7-7---------------------------------------|


C#|---------------------------------------------------------------------------|
G#|---------------------------------------------------------------------------|
E |---------------------------------------------------------------------------|
B |---7-8-8-8--7-8-8--5--7-7-7--5-7-7-7---------------------------------------|
F#|---7-8-8-8--7-8-8--5--7-7-7--5-7-7-7---------------------------------------|
B |---7-8-8-8--7-8-8--5--7-7-7--5-7-7-7---------------------------------------|


C#|---------------------------------------------------------------------------|
G#|---------------------------------------------------------------------------|
E |---------------------------------------------------------------------------|
B |---7-8-8-8--7-8-8-----5---6-7-8--------------------------------------------|
F#|---7-8-8-8--7-8-8-----5---6-7-8--------------------------------------------|
B |---7-8-8-8--7-8-8-----5---6-7-8--------------------------------------------|

(Bridge)
Play 2x
C#|---------------------------------------------------------------------------|
G#|---------------------------------------------------------------------------|
E |---------------------------------------------------------------------------|
B |------------------------------------3--------------------------------------|
F#|---3-5-5-5--3-5-5-5--3-5-5-5--0-3-5----------------------------------------|
B |---------------------------------------------------------------------------|

C#|---------------------------------------------------------------------------|
G#|---------------------------------------------------------------------------|
E |---------------------------------------------------------------------------|
B |--------------------------------5-5-3-3------------------------------------|
F#|---3-5-5-5--3-5-5-5--3-5-5-5--0--------------------------------------------|
B |---------------------------------------------------------------------------|

Play 8x
C#|---------------------------------------------------------------------------|
G#|---------------------------------------------------------------------------|
E |---------------------------------------------------------------------------|
B |---3-5-5-5--3-5-5-5--3-5-5-5--0-3-5-8--------------------------------------|
F#|---3-5-5-5--3-5-5-5--3-5-5-5--0-3-5-8--------------------------------------|
B |---3-5-5-5--3-5-5-5--3-5-5-5--0-3-5-8--------------------------------------|

(Chorus)
Play 2x
C#|---------------------------------------------------------------------------|
G#|---------------------------------------------------------------------------|
E |---------------------------------------------------------------------------|
B |---7-8-8-8--7-8-8--5--7-7-7--5-7-7-7---------------------------------------|
F#|---7-8-8-8--7-8-8--5--7-7-7--5-7-7-7---------------------------------------|
B |---7-8-8-8--7-8-8--5--7-7-7--5-7-7-7---------------------------------------|


C#|---------------------------------------------------------------------------|
G#|---------------------------------------------------------------------------|
E |---------------------------------------------------------------------------|
B |---7-8-8-8--7-8-8--5--7-7-7--5-7-7-7---------------------------------------|
F#|---7-8-8-8--7-8-8--5--7-7-7--5-7-7-7---------------------------------------|
B |---7-8-8-8--7-8-8--5--7-7-7--5-7-7-7---------------------------------------|


C#|---------------------------------------------------------------------------|
G#|---------------------------------------------------------------------------|
E |---------------------------------------------------------------------------|
B |---7-8-8-8--7-8-8--5--7-7-7--5-7-7-7---------------------------------------|
F#|---7-8-8-8--7-8-8--5--7-7-7--5-7-7-7---------------------------------------|
B |---7-8-8-8--7-8-8--5--7-7-7--5-7-7-7---------------------------------------|


C#|---------------------------------------------------------------------------|
G#|---------------------------------------------------------------------------|
E |---------------------------------------------------------------------------|
B |---7-8-8-8--7-8-8-----5---6-7-8--------------------------------------------|
F#|---7-8-8-8--7-8-8-----5---6-7-8--------------------------------------------|
B |---7-8-8-8--7-8-8-----5---6-7-8--------------------------------------------|

(Break)

Then Hits Heavy Again

(Outro)

Play 6x
C#|---------------------------------------------------------------------------|
G#|---------------------------------------------------------------------------|
E |---------------------------------------------------------------------------|
B |---3-5-5-5--3-5-5-5--3-5-5-5--3-5-5-5--------------------------------------|
F#|---3-5-5-5--3-5-5-5--3-5-5-5--3-5-5-5--------------------------------------|
B |---3-5-5-5--3-5-5-5--3-5-5-5--3-5-5-5--------------------------------------|


C#|---------------------------------------------------------------------------|
G#|---------------------------------------------------------------------------|
E |---------------------------------------------------------------------------|
B |---6-5-5-5--6-5-5-5--6-5-5-5--6-5-5-5--------------------------------------|
F#|---6-5-5-5--6-5-5-5--6-5-5-5--6-5-5-5--------------------------------------|
B |---6-5-5-5--6-5-5-5--6-5-5-5--6-5-5-5--------------------------------------|

End On This

C#|------------------------------------------|
G#|------------------------------------------|
E |------------------------------------------|
B |---0--------------------------------------|
F#|---0--------------------------------------|
B |---0--------------------------------------|


************************************

| /   slide up
| \   slide down
| h   hammer-on
| p   pull-off
| ~   vibrato
| +   harmonic
| x   Mute note
| b   Bend
| pb  Pre-bend
| br  Bend release
| pbr Pre-bend release
| brb Bend release bend

************************************

            
            
Suggest correction
Creating personal tab
Creating personal tab
You can edit any tab online and save it as your Personal.

You can edit, replace or remove any tab part or add personal notes – all changes will be seen only by you.

Personal tabs can be accessed anytime from any device, even offline.
Learn more »
Give kudos to tab author, rate the tab!
1 2 3 4 5
comments
print report bad tab
guest
You may want to rate the tab now too:
select rating
Wanna post a correction for this tab? Suggest correction