Oops, an error
Loading. Please wait.

Cast To The Pyre tab

508 views 3 this week
no commentswrite comment
1 2 3 4 5
2 more votes to show rating
add to favorites
×
Save as Personal and add changes to this tab that will be seen only by you. Learn more ›
×
You can save this tab as Personal to edit and correct it or add notes. All changes will be seen only by you. Learn more »
launch autoscroll
font size
0
reset
how to read this tab
guitar tuner
edit
Autoscroll
slow
fast
+/-
esc
set tempo
stop
Author
                           Cast to the Pyre
                              Primordial



|Guitar 1:
|---4--------------------|-4----------------------|---4--------------------|
|-5---4------------------|---4--------------------|-5---4------------------|
|-------5----------------|-----4------------------|-------5----------------|
|----------------------6-|-------6----------------|----------------------6-|
|------------------------|------------------------|------------------------|
|------------------------|------------------------|------------------------|
|
|Guitar 2:
|------------------------|------------------------|------------------------|
|------------------------|------------------------|------------------------|
|------------------------|------------------------|------------------------|
|-6-----6-----6-----6----|-6-----6-----6-----6----|-6-----6-----6-----6----|
|-6-----6-----6-----6----|-6-----6-----6-----6----|-6-----6-----6-----6----|
|-4---0-4---0-4---0-4---0|-4---0-4---0-4---0-4---0|-4---0-4---0-4---0-4---0|


|-4----------------------|---4------------------|-4------------------------|
|---4--------------------|-5---4----------------|---4----------------------|
|-----4------------------|-------5--------------|-----4--------------------|
|-------6----------------|--------------------6-|-------6b(7)r6------------|
|------------------------|----------------------|--------------------------|
|------------------------|----------------------|--------------------------|
|
|
|------------------------|------------------------|------------------------|
|------------------------|------------------------|------------------------|
|------------------------|------------------------|------------------------|
|-6-----6-----6-----6----|-6-----6-----6-----6----|-6-----6-----6-----6----|
|-6-----6-----6-----6----|-6-----6-----6-----6----|-6-----6-----6-----6----|
|-4---0-4---0-4---0-4---0|-4---0-4---0-4---0-4---0|-4---0-4---0-4---0-4---0|




|-------0----------------|-------0----------------|-4----------------------|
|-----6------------------|-----6------------------|---4--------------------|
|---5--------------------|---5--------------------|-----4------------------|
|-7----------------------|-7--------------------6-|-------6--------------6-|
|------------------------|------------------------|------------------------|
|------------------------|------------------------|------------------------|
|
|
|------------------------|------------------------|------------------------|
|------------------------|------------------------|------------------------|
|------------------------|------------------------|------------------------|
|-7-----7-----7-----7----|-7-----7-----7-----7----|-6-----6-----6-----6----|
|-7-----7-----7-----7----|-7-----7-----7-----7----|-6-----6-----6-----6----|
|-5---0-5---0-5---0-5---0|-5---0-5---0-5---0-5---0|-4---0-4---0-4---0-4---0|



|-4----------------------|-------0----------------|-------0----------------|
|---4--------------------|-----6------------------|-----6------------------|
|-----4------------------|---5--------------------|---5--------------------|
|-------6----------------|-7----------------------|-7--------------------6-|
|------------------------|------------------------|------------------------|
|------------------------|------------------------|------------------------|
|
|
|------------------------|------------------------|------------------------|
|------------------------|------------------------|------------------------|
|------------------------|------------------------|------------------------|
|-6-----6-----6-----6----|-7-----7-----7-----7----|-7-----7-----7-----7----|
|-6-----6-----6-----6----|-7-----7-----7-----7----|-7-----7-----7-----7----|
|-4---0-4---0-4---0-4---0|-5---0-5---0-5---0-5---0|-5---0-5---0-5---0-5---0|



|-4----------------------|-4----------------------|
|---4--------------------|---4--------------------|
|-----4------------------|-----4------------------| 
|-------6--------------6-|-------6----------------|  
|------------------------|------------------------|
|------------------------|------------------------|
|
|
|------------------------|------------------------|
|------------------------|------------------------|
|------------------------|------------------------|   x2 from beginning
|-6-----6-----6-----6----|-6-----6-----6-----6----|
|-6-----6-----6-----6----|-6-----6-----6-----6----|
|-4---0-4---0-4---0-4---0|-4---0-4---0-4---0-4---0|








|------------------------|------------------------| _
|------------------------|------------------------|  |
|------------------------|-5-5-5-5-5-5-5-5-5-5-5-5|  |
|-------------------7-7-7|-5-5-5-5-5-5-5-5-5-5-5-5|  |
|-7-----7-----7-----7-7-5|-3-3-3-3-3-3-3-3-3-3-3-3|  |
|-5-5-5-5-5-5-5-5-5------|-3-3-3-3-3-3-3-3-3-3-3-3|  |
|                                                    |
|                                                    |
|------------------------|------------------------|  |
|------------------------|------------------------|  |
|------------------------|-5-5-5-5-5-5-5-5-5-5-5-5|  |
|------------------------|-5-5-5-5-5-5-5-5-5-5-5-5|  |
|-7-7-7-7-7-7-7-7-7-7-7-7|-3-3-3-3-3-3-3-3-3-3-3-3|  |
|-5-5-5-5-5-5-5-5-5-5-5-5|-3-3-3-3-3-3-3-3-3-3-3-3   |    
                                                     |   
|------------------------|------------------------|  |--> x4
|------------------------|------------------------|  | 
|-9-9-9-9-9-9-9-9-9-9-8-8|-5-5-5-5-5-5-5-5-5-5-5-5|  |
|------------------------|------------------------|  |
|-7-7-7-7-7-7-7-7-7-7-6-6|-3-3-3-3-3-3-3-3-3-3-3-3|  |
|------------------------|------------------------|  |
|                                                    |
|                                                    |
|------------------------|------------------------|  |
|------------------------|------------------------|  | 
|------------------------|------------------------|  |
|-------6-----------6----|-------6-----------6----|  |
|-------3-----------3----|-------3-----------3----|  |
|-4-4-4-4-4-4-4-4-4-4-4-4|-4-4-4-4-4-4-4-4-4-4-4-4|  -

|----------------------------|
|----------------------------|
|----------------------------|
|----------------------------|
|----------------------------|
|-5~~~~~~~~~-----------------|
|
|
|----------------------------|
|----------------------------|
|----------------------------|
|----------------------------|
|----------------------------|
|-5~~~~~~~~~-----------------|








|
|---4--------------------|-4----------------------|---4--------------------|
|-5---4------------------|---4--------------------|-5---4------------------|
|-------5----------------|-----4------------------|-------5----------------|
|----------------------6-|-------6----------------|----------------------6-|
|------------------------|------------------------|------------------------|
|------------------------|------------------------|------------------------|
|
|
|------------------------|------------------------|------------------------|
|------------------------|------------------------|------------------------|
|------------------------|------------------------|------------------------|
|-6-----6-----6-----6----|-6-----6-----6-----6----|-6-----6-----6-----6----|
|-6-----6-----6-----6----|-6-----6-----6-----6----|-6-----6-----6-----6----|
|-4---0-4---0-4---0-4---0|-4---0-4---0-4---0-4---0|-4---0-4---0-4---0-4---0|


|-4----------------------|---4------------------|-4------------------------|
|---4--------------------|-5---4----------------|---4----------------------|
|-----4------------------|-------5--------------|-----4--------------------|
|-------6----------------|--------------------6-|-------6b(7)r6------------|
|------------------------|----------------------|--------------------------|
|------------------------|----------------------|--------------------------|
|
|
|------------------------|------------------------|------------------------|
|------------------------|------------------------|------------------------|
|------------------------|------------------------|------------------------|
|-6-----6-----6-----6----|-6-----6-----6-----6----|-6-----6-----6-----6----|
|-6-----6-----6-----6----|-6-----6-----6-----6----|-6-----6-----6-----6----|
|-4---0-4---0-4---0-4---0|-4---0-4---0-4---0-4---0|-4---0-4---0-4---0-4---0|




|-------0----------------|-------0----------------|-4----------------------|
|-----6------------------|-----6------------------|---4--------------------|
|---5--------------------|---5--------------------|-----4------------------|
|-7----------------------|-7--------------------6-|-------6--------------6-|
|------------------------|------------------------|------------------------|
|------------------------|------------------------|------------------------|
|
|
|------------------------|------------------------|------------------------|
|------------------------|------------------------|------------------------|
|------------------------|------------------------|------------------------|
|-7-----7-----7-----7----|-7-----7-----7-----7----|-6-----6-----6-----6----|
|-7-----7-----7-----7----|-7-----7-----7-----7----|-6-----6-----6-----6----|
|-5---0-5---0-5---0-5---0|-5---0-5---0-5---0-5---0|-4---0-4---0-4---0-4---0|



|-4----------------------|-------0----------------|-------0----------------|
|---4--------------------|-----6------------------|-----6------------------|
|-----4------------------|---5--------------------|---5--------------------|
|-------6----------------|-7----------------------|-7--------------------6-|
|------------------------|------------------------|------------------------|
|------------------------|------------------------|------------------------|
|
|
|------------------------|------------------------|------------------------|
|------------------------|------------------------|------------------------|
|------------------------|------------------------|------------------------|
|-6-----6-----6-----6----|-7-----7-----7-----7----|-7-----7-----7-----7----|
|-6-----6-----6-----6----|-7-----7-----7-----7----|-7-----7-----7-----7----|
|-4---0-4---0-4---0-4---0|-5---0-5---0-5---0-5---0|-5---0-5---0-5---0-5---0|



|-4----------------------|-4----------------------|
|---4--------------------|---4--------------------|
|-----4------------------|-----4------------------| 
|-------6--------------6-|-------6----------------|  
|------------------------|------------------------|
|------------------------|------------------------|
|
|
|------------------------|------------------------|
|------------------------|------------------------|
|------------------------|------------------------|   x2 
|-6-----6-----6-----6----|-6-----6-----6-----6----|
|-6-----6-----6-----6----|-6-----6-----6-----6----|
|-4---0-4---0-4---0-4---0|-4---0-4---0-4---0-4---0|




|------------------------|------------------------| _
|------------------------|------------------------|  |
|------------------------|-5-5-5-5-5-5-5-5-5-5-5-5|  |
|-------------------7-7-7|-5-5-5-5-5-5-5-5-5-5-5-5|  |
|-7-----7-----7-----7-7-5|-3-3-3-3-3-3-3-3-3-3-3-3|  |
|-5-5-5-5-5-5-5-5-5------|-3-3-3-3-3-3-3-3-3-3-3-3|  |
|                                                    |
|                                                    |
|------------------------|------------------------|  |
|------------------------|------------------------|  |
|------------------------|-5-5-5-5-5-5-5-5-5-5-5-5|  |
|------------------------|-5-5-5-5-5-5-5-5-5-5-5-5|  |
|-7-7-7-7-7-7-7-7-7-7-7-7|-3-3-3-3-3-3-3-3-3-3-3-3|  |
|-5-5-5-5-5-5-5-5-5-5-5-5|-3-3-3-3-3-3-3-3-3-3-3-3|  |    
                                                     |   
|------------------------|------------------------|  |--> x2
|------------------------|------------------------|  | 
|-9-9-9-9-9-9-9-9-9-9-8-8|-5-5-5-5-5-5-5-5-5-5-5-5|  |
|------------------------|------------------------|  |
|-7-7-7-7-7-7-7-7-7-7-6-6|-3-3-3-3-3-3-3-3-3-3-3-3|  |
|------------------------|------------------------|  |
|                                                    |
|                                                    |
|------------------------|------------------------|  |
|------------------------|------------------------|  | 
|------------------------|------------------------|  |
|-------6-----------6----|-------6-----------6----|  |
|-------3-----------3----|-------3-----------3----|  |
|-4-4-4-4-4-4-4-4-4-4-4-4|-4-4-4-4-4-4-4-4-4-4-4-4|  -

|------------------------|------------------------|
|------------------------|------------------------|
|------------------------|-------------9-9-9-9-9-9|   
|-9----10----12----10----|-9----10----------------|  
|------------------------|-------------7-7-7-7-7-7|   
|-7----8-----10-----8----|-7-----8----------------|  
|
|
|------------------------|------------------------|  
|------------------------|------------------------|  
|------------------------|-5-5-5-5-5-5-5-5-5-5-5-5|  
|------------------------|-5-5-5-5-5-5-5-5-5-5-5-5|  
|-7-7-7-7-7-7-7-7-7-7-7-7|-3-3-3-3-3-3-3-3-3-3-3-3|  
|-5-5-5-5-5-5-5-5-5-5-5-5|-3-3-3-3-3-3-3-3-3-3-3-3|      
                                                     
|------------------------|------------------------|
|------------------------|------------------------|  
|-9-9-9-9-9-9-9-9-9-9-8-8|-5-5-5-5-5-5-5-5-5-5-5-5|  
|------------------------|------------------------|  
|-7-7-7-7-7-7-7-7-7-7-6-6|-3-3-3-3-3-3-3-3-3-3-3-3|
|------------------------|------------------------|
|
|
|------------------------|------------------------|  
|------------------------|------------------------|   
|------------------------|------------------------|  
|-------6-----------6----|-------6-----------6----|  
|-------3-----------3----|-------3-----------3----|  
|-4-4-4-4-4-4-4-4-4-4-4-4|-4-4-4-4-4-4-4-4-4-4-4-4|  


|------------------------|------------------------|
|------------------------|------------------------|
|------------------------|-------9------7---------|   
|-9----10----12----10----|-9-------------------9--|  
|------------------------|-------7------5---------|   
|-7----8-----10-----8----|-7-------------------7--|     
|
|
|------------------------|------------------------|  
|------------------------|------------------------|  
|------------------------|-5-5-5-5-5-5-5-5-5-5-5-5|  
|------------------------|-5-5-5-5-5-5-5-5-5-5-5-5|  
|-7-7-7-7-7-7-7-7-7-7-7-7|-3-3-3-3-3-3-3-3-3-3-3-3|  
|-5-5-5-5-5-5-5-5-5-5-5-5|-3-3-3-3-3-3-3-3-3-3-3-3|   
                                                     
|------------------------|------------------------|
|------------------------|------------------------|  
|-9-9-9-9-9-9-9-9-9-9-8-8|-5-5-5-5-5-5-5-5-5-5-5-5|  
|------------------------|------------------------|  
|-7-7-7-7-7-7-7-7-7-7-6-6|-3-3-3-3-3-3-3-3-3-3-3-3|
|------------------------|------------------------|
|
|
|------------------------|------------------------|  
|------------------------|------------------------|   
|------------------------|------------------------|  
|-------6-----------6----|-------6-----------6----|  
|-------3-----------3----|-------3-----------3----|  
|-4-4-4-4-4-4-4-4-4-4-4-4|-4-4-4-4-4-4-4-4-4-4-4-4|  


|------------------------|------------------------|
|------------------------|------------------------|  
|-9-9-9-9-9-9-9-9-8-8s9-6|-5-5-5-5-5-5-5-5-5-5-5-5|  
|------------------------|------------------------|  
|-7-7-7-7-7-7-7-7-6-6s7-4|-3-3-3-3-3-3-3-3-3-3-3-3|
|------------------------|------------------------|
|
|
|------------------------|------------------------|  
|------------------------|------------------------|   
|------------------------|------------------------|  
|-------6-----------6----|-------6-----------6----|  
|-------3-----------3----|-------3-----------3----|  
|-4-4-4-4-4-4-4-4-4-4-4-4|-4-4-4-4-4-4-4-4-4-4-4-4|  


|-------------------------------------|------------------------|
|-------------------------------------|------------------------| 
|13-13-13-13-13-13-13-13-13-13-12s13-9|-8-8-8-8-8-8-8-8-8-8-8-8|
|-------------------------------------|------------------------| 
|11-11-11-11-11-11-11-11-11-11-10s11-7|-6-6-6-6-6-6-6-6-6-6-6-6|
|-------------------------------------|------------------------|
|
|
|------------------------|------------------------|  
|------------------------|------------------------|   
|------------------------|------------------------|  
|-------6-----------6----|-------6-----------6----|  
|-------3-----------3----|-------3-----------3----|  
|-4-4-4-4-4-4-4-4-4-4-4-4|-4-4-4-4-4-4-4-4-4-4-4-4|  



|-------------------------------------|------------------------|
|-------------------------------------|------------------------| 
|13-13-13-13-13-13-13-13-13-13-12s13-9|-8-8-8-8-8-8-8-8-8-8-8-8|
|-------------------------------------|------------------------| 
|11-11-11-11-11-11-11-11-11-11-10s11-7|-6-6-6-6-6-6-6-6-6-6-6-6|
|-------------------------------------|------------------------|
|
|
|------------------------|------------------------|  
|------------------------|------------------------|   
|------------------------|------------------------|  
|-------6-----------6----|-------6-----------6----|  
|-------3-----------3----|-------3-----------3----|  
|-4-4-4-4-4-4-4-4-4-4-4-4|-4-4-4-4-4-4-4-4-4-4-4-4|  



|--------------------------------------|------------------------|
|--------------------------------------|------------------------|
|--------------------------------------|------------------------|
|10-10-10-10-10-10-10-10-10-10-9h10p9-6|-9-9-9-9-9-9-9-9-9-9-9-9|
|--------------------------------------|------------------------|
|--------------------------------------|------------------------|
|
|
|------------------------|------------------------|  
|------------------------|------------------------|   
|------------------------|------------------------|  
|-------6-----------6----|-------6-----------6----|  
|-------3-----------3----|-------3-----------3----|  
|-4-4-4-4-4-4-4-4-4-4-4-4|-4-4-4-4-4-4-4-4-4-4-4-4|  



|------------------------|------------------------|
|------------------------|------------------------|
|------------------------|------------------------|
|-6-6-6-6-6-6-6-6-6-6-6-6|-6-6-6-6-6-6-6-6-6-6-6-6|
|------------------------|------------------------|
|------------------------|------------------------|
|
|
|------------------------|------------------------|  
|------------------------|------------------------|   
|-4-4-4-4-4-4-4-4-4-4-4-4|-4-4-4-4-4-4-4-4-4------|  
|-6-6-6-6-6-6-6-6-6-6-6-6|-6-6-6-6-6-6-6-6-6-4-4-4|  
|-6-6-6-6-6-6-6-6-6-6-6-6|-6-6-6-6-6-6-6-6-6-4-4-4|  
|-4-4-4-4-4-4-4-4-4-4-4-4|-4-4-4-4-4-4-4-4-4-2-2-2|  



|------------------------|------------------------|
|------------------------|------------------------|
|------------------------|------------------4-----|
|------------------------|-------6----------------|
|------------------------|------------------------|
|------------------------|------------------------|
|
|
|------------------------|------------------------|
|------------------------|------------------------|
|-4-4-4-4-4-4-4-4-4-4-4-4|-4-4-4-4-4-4-4-4-4-4-4-4|
|-2-2-2-2-2-2-2-2-2-2-2-2|-2-2-2-2-2-2-2-2-2-2-2-2|
|-2-2-2-2-2-2-2-2-2-2-2-2|-2-2-2-2-2-2-2-2-2-2-2-2|
|-0-0-0-0-0-0-0-0-0-0-0-0|-0-0-0-0-0-0-0-0-0-0-0-0|


|------------------------|------------------------|
|-4----5-4---------------|------------------------|
|------------------------|------------------------|
|------------------------|------------------------|
|------------------------|------2-----------------|
|------------------------|------------4-----------|
|
|
|------------------------|------------------------|  
|------------------------|------------------------|   
|-4-4-4-4-4-4-4-4-4-4-4-4|-4-4-4-4-4-4-4-4-4------|  
|-6-6-6-6-6-6-6-6-6-6-6-6|-6-6-6-6-6-6-6-6-6-4-4-4|  
|-6-6-6-6-6-6-6-6-6-6-6-6|-6-6-6-6-6-6-6-6-6-4-4-4|  
|-4-4-4-4-4-4-4-4-4-4-4-4|-4-4-4-4-4-4-4-4-4-2-2-2|  


|------------------------|------------------------|
|------------------------|------------------------|
|------------------------|-------------9-9-9-9s8-8|
|------------------------|------------------------|
|---------------------4h6|-7-7-7-7-7-7-7-7-7-7s6-6|
|------------------------|------------------------|
|
|
|------------------------|------------------------|
|-5-5-5-5-5-5-5-5-5-5-5-5|-5-5-5-5-5-5-5-5-5-5-5-5|
|-4-4-4-4-4-4-4-4-4-4-4-4|-4-4-4-4-4-4-4-4-4-4-4-4|
|-2-2-2-2-2-2-2-2-2-2-2-2|-2-2-2-2-2-2-2-2-2-2-2-2|
|-2-2-2-2-2-2-2-2-2-2-2-2|-2-2-2-2-2-2-2-2-2-2-2-2|
|-0-0-0-0-0-0-0-0-0-0-0-0|-0-0-0-0-0-0-0-0-0-0-0-0|


|------------------------|------------------------|
|------------------------|------------------------|
|-8----------------------|------------------------|
|------------------------|------------------------|
|-6----------------------|------------------------|
|------------------------|------------------------|
|
|
|------------------------|------------------------|  
|------------------------|------------------------|   
|-4-4-4-4-4-4-4-4-4-4-4-4|-4-4-4-4-4-4-4-4-4------|  
|-6-6-6-6-6-6-6-6-6-6-6-6|-6-6-6-6-6-6-6-6-6-4-4-4|  
|-6-6-6-6-6-6-6-6-6-6-6-6|-6-6-6-6-6-6-6-6-6-4-4-4|  
|-4-4-4-4-4-4-4-4-4-4-4-4|-4-4-4-4-4-4-4-4-4-2-2-2|


|------------------------|------------------------|
|-------------------5----|------------------------|
|-------------4----------|------------------------|
|-6----------------------|------------------------|
|------------------------|-------------------7----|
|------------------------|-4-----------7----------|
|
|
|------------------------|------------------------|
|-5-5-5-5-5-5-5-5-5-5-5-5|-5-5-5-5-5-5-5-5-5-5-5-5|
|-4-4-4-4-4-4-4-4-4-4-4-4|-4-4-4-4-4-4-4-4-4-4-4-4|
|-2-2-2-2-2-2-2-2-2-2-2-2|-2-2-2-2-2-2-2-2-2-2-2-2|
|-2-2-2-2-2-2-2-2-2-2-2-2|-2-2-2-2-2-2-2-2-2-2-2-2|
|-0-0-0-0-0-0-0-0-0-0-0-0|-0-0-0-0-0-0-0-0-0-0-0-0|

|--------------------------------|--------------------------------|
|--------------------------------|--------------------------------|
|--------------------------------|--------------------------------|
|--------------------------------|--------------------------------|
|-4s6-6-6-4s6-6-6-4s6-6-6-4s6-6-6|-4s6-6-6-4s6-6-6-4s6-6-6-4s6-6-6|
|-2s4-4-4-2s4-4-4-2-4-4-4-2s4-4-4|-2s4-4-4-2s4-4-4-2s4-4-4-2s4-4-4|
|
|
|------------------------|------------------------|  
|------------------------|------------------------|   
|-4-4-4-4-4-4-4-4-4-4-4-4|-4-4-4-4-4-4-4-4-4------|  
|-6-6-6-6-6-6-6-6-6-6-6-6|-6-6-6-6-6-6-6-6-6-4-4-4|  
|-6-6-6-6-6-6-6-6-6-6-6-6|-6-6-6-6-6-6-6-6-6-4-4-4|  
|-4-4-4-4-4-4-4-4-4-4-4-4|-4-4-4-4-4-4-4-4-4-2-2-2|

|-------------------------|-------------------------|
|-------------------------|-------------------------|
|-11-----9-----8----9-----|-8-----------------------|
|-------------------------|-------11-----9-----7----|
|-9------7-----6----7-----|-6-----------------------|
|-------------------------|-------9------7-----5----|
|
|
|------------------------|------------------------|
|------------------------|------------------------|
|-4-4-4-4-4-4-4-4-4-4-4-4|-4-4-4-4-4-4-4-4-4-4-4-4|
|-2-2-2-2-2-2-2-2-2-2-2-2|-2-2-2-2-2-2-2-2-2-2-2-2|
|-2-2-2-2-2-2-2-2-2-2-2-2|-2-2-2-2-2-2-2-2-2-2-2-2|
|-0-0-0-0-0-0-0-0-0-0-0-0|-0-0-0-0-0-0-0-0-0-0-0-0|



|------------------------|------------------------|
|------------------------|------------------------|
|------------------------|------------------------|
|------------------------|------------------------|
|------------------------|------------------------|
|------------------------|------------------------|
|
|
|------------------------|------------------------|  
|------------------------|------------------------|   
|-4-4-4-4-4-4-4-4-4-4-4-4|-4-4-4-4-4-4-4-4-4------|  
|-6-6-6-6-6-6-6-6-6-6-6-6|-6-6-6-6-6-6-6-6-6-4-4-4|  
|-6-6-6-6-6-6-6-6-6-6-6-6|-6-6-6-6-6-6-6-6-6-4-4-4|  
|-4-4-4-4-4-4-4-4-4-4-4-4|-4-4-4-4-4-4-4-4-4-2-2-2|


                                                by decapitator94



            
            
Suggest correction
Creating personal tab
Creating personal tab
You can edit any tab online and save it as your Personal.

You can edit, replace or remove any tab part or add personal notes – all changes will be seen only by you.

Personal tabs can be accessed anytime from any device, even offline.
Learn more »
Give kudos to tab author, rate the tab!
1 2 3 4 5
comments
print report bad tab
guest
You may want to rate the tab now too:
select rating
Wanna post a correction for this tab? Suggest correction