Oops, an error
Loading. Please wait.

Gods To The Godless tab

3,520 views 3 this week
no commentswrite comment
1 2 3 4 5
x 4
add to favorites
×
Save as Personal and add changes to this tab that will be seen only by you. Learn more ›
×
You can save this tab as Personal to edit and correct it or add notes. All changes will be seen only by you. Learn more »
launch autoscroll
font size
0
reset
how to read this tab
guitar tuner
edit
Autoscroll
slow
fast
+/-
esc
set tempo
stop
Author
Difficulty
Here is the song Primordial - Gods to the Godless

Tuning E A D G B E

\ - SLIDE DOWN TO NOTE OR SLIDE DOWN FROM NOTE
/ - SLIDE UP TO NOTE
h - HAMMER ON

INTRO-CLEAN ELECTRC GUITAR(CONSTANT STRUMMING OF EACH CHORD,
LISTEN TO CD FOR NUMBER OF TIMES) PLAY 2 TIMES

|-5-------------------3----------------3---------------10-----------|
|-6-------------------5----------------6---------------10-----------|
|-7-------------------5----------------3---------------10-----------|
|-7-------------------5----------------5---------------12-----------|
|-5-------------------3----------------5---------------12-----------|
|--------------------------------------3---------------10-----------|

|-3------------------5--------------|
|-3------------------5--------------|
|-3------------------6--------------|
|-5------------------7--------------|
|-5------------------7--------------|
|-3------------------5--------------|


RIFF 1 (THIS JUST SHOWS THE CHORDS,LISTEN TO CD FOR STRUMMING PATTERN)
PLAY 6 TIMES
|-6-----------6--5--3----5----------8---------8--6--0-----0-------|
|-6-----------6--5--3----6----------8---------8--6--0-----0-------|
|-7-----------7--5--3----7----------9---------9--7--0-----0-------|
|-8-----------8--7--5----7----------10--------10-8--5-----7-------|
|-8-----------8--7--5----5----------10--------10-8--5-----7-------|
|-6-----------6--5--3---------------8---------8--6--3-----5-------|

LEAD GUITAR OVER RIFF 1 (LISTEN TO SONG FOR EXACT PICKING)
|-------------------------------------|--------------------------------|
|-------------------------------------|--------------------------------|
|-------------------------------------|--------------------------------|
|-------------------------------------|--------------------------------|
|-----------------5--5-5-5-5--5-5-5-3-|-3-3-3--3-----------------------|
|-6--6-6-6--6-5-3---------------------|----------6-3-5—-5-5-5-5--5-5-5-|

|-------------------------------------|--------------------------------|
|-------------------------------------|--------------------------------|
|-------------------------------------|--------------------------------|
|-------------------------------------|--------------------------------|
|-----------------5--5-5-5-5--5-5-5-3-|-3-3-3--3-----------------------|
|-6--6-6-6--6-5-3---------------------|----------6-3-5—-5-5-5-5--5-5-5-|

|--------------------------------|-----------------------------------|
|--------------------------------|-----------------------------------|
|--------------------------------|------------7--5-5-----------------|
|-----------7—-7--5--5-----------|----------7--------8-5-7—7---------|
|-8—-8-7-5-------------8--5--7—7-|-8--8-7-5--------------------------|
|--------------------------------|-----------------------------------|

|--------------------------------|------------------------------------|
|--------------------------------|------------------------------------|
|-----------7--7--5--5-----------|-7--7-5------10--9--9-7-------------|
|-8--8-7-5-------------8--5-7--7-|--------8-7-------------10-7--7—/12-|
|--------------------------------|------------------------------------|
|--------------------------------|------------------------------------|

RIFF 2 (JUST SHOWS THE CHORDS,LISTEN TO CD FOR STRUMMING PATTERN)
PLAY 4 TIMES
|-5-------------------3----------------3---------------10-------10\-|
|-6-------------------5----------------6---------------10-------10\-|
|-7-------------------5----------------3---------------10-------10\-|
|-7-------------------5----------------5---------------12-------12\-|
|-5-------------------3----------------5---------------12-------12\-|
|--------------------------------------3---------------10-------10\-|

|-3------------------5--------------|
|-3------------------5--------------|
|-3------------------6--------------|
|-5------------------7--------------|
|-5------------------7--------------|
|-3------------------5--------------|

LEAD PARTS DURING RIFF 2
|-------------------------------|
|-------------------------------|
|-9-9--7-7-------9-9--7—9h10-7--|LET NOTE RING OUT
|----------8-7------------------|
|-------------------------------|
|-------------------------------|

|-------------------------------------------------|
|-------------------------------------------------|
|-------------------------------------------------|
|-------------------------------------------------|
|-7-7--5-5--------7-7--5-5------7-7-5--7-8--5-----|NOTE RINGS OUT
|-----------6--3-----------6-5--------------------|

|---------------------------------------------|
|---------------------------------------------|
|-9-9--7-7-------9-9--7-7------9-9-7-9h10--7--|NOTE RINGS OUT
|----------8--5-----------8-7-----------------|
|---------------------------------------------|
|---------------------------------------------|

|-----------------------------------------|
|------------------------10--11-10-8-10---|NOTE RINGS OUT
|-7--9--10--12-10-9-7--9------------------|
|-----------------------------------------|
|-----------------------------------------|
|-----------------------------------------|


REPEAT RIFF 1 (4 TIMES)

RIFF 3 (FAST STRUMMING) PLAY 2 TIMES
|-5-----------------1------------0---0-------------0---6------------|
|-6-----------------1------------0---0-------------0---6------------|
|-7-----------------2------------1---0-------------0---7------------|
|-7-----------------3------------2---7-------------5---8------------|
|-5-----------------3------------2---7-------------5---8------------|
|-------------------1------------0---5-------------3---6------------|

|-0---8---------------3---5-----------3---5------------------1------|
|-0---8---------------3---5-----------3---5------------------1------|
|-0---9---------------3---5-----------3---5------------------2------|
|-5---10--------------5---7-----------5---7------------------3------|
|-5---10--------------5---7-----------5---7------------------3------|
|-3---8---------------3---5-----------3---5------------------1------|


RIFF 4a (PLAY 4 TIMES)
|-5--5-5-5-5--5-5-5-5--------------------|
|-6--6-6-6-6--6-6-6-6--------------------|
|-7--7-7-7-7--7-7-7-7-3--------3---------|
|-7--7-7-7-7--7-7-7-7-3--3--3--3--3--3---|
|-5--5-5-5-5--5-5-5-5-1--3--3--1--3--3---|
|------------------------1--1-----1--1---|


REPEAT RIFF 3 (2 TIMES)
REPEAT RIFF 4a(3 TIMES)

RIFF 4b
|-5--5-5-5-5--5-5-5-5------------------|
|-6--6-6-6-6--6-6-6-6------------------|
|-7--7-7-7-7--7-7-7-7-3--------3-------|
|-7--7-7-7-7--7-7-7-7-3--3--3--3--3----|
|-5--5-5-5-5--5-5-5-5-1--3--3--1--3----|
|------------------------1--1-----1--0-|

|-0--0-0-0-0--0-0-0-0--0-0-0-0--0-0-0---|
|-1--1-1-1-1--1-1-1-1--1-1-1-1--1-1—1---|
|-2--2-2-2-2--2-2-2-2--2-2-2-2--2-2-2---|
|-2--2-2-2-2--2-2-2-2--2-2-2-2--2-2-2---|
|-0--0-0-0-0--0-0-0-0--0-0-0-0--0-0-0---|
|---------------------------------------|

RIFF 5 (THIS JUST SHOWS THE NOTES,CONSTANT UP DOWN PICKING)
GUITAR 1
|--------------------------|         |--------------------------------|
|--------------------------|         |--------------------------------|
|-7--10-9-12---15---12-14--|PLAY 3   |-7--10-9-12---15---12-14--15-14-|
|--------------------------| TIMES   |--------------------------------|
|--------------------------|         |--------------------------------|
|--------------------------|         |--------------------------------|

|-------------------------------------|
|-------------------------------------|
|-15--14-12--7-----17---15--12--15----| PLAY 3 TIMES
|-------------------------------------|
|-------------------------------------|
|-------------------------------------|

|--------------------------------|
|-15----------------17--15-17-18-|
|------15-14--7------------------|
|--------------------------------|
|--------------------------------|
|--------------------------------|

RIFF 5 GUITAR 2 (THIS JUST SHOWS THE NOTES,CONSTANT UP DOWN PICKING)

|------------------------------|        |-----------------------------|
|------------------------------|        |-----------------------------|
|-14----15-----19-------15--17-|PLAY 3  |-14---15---19--15--17--19-17-|
|------------------------------|TIMES   |-----------------------------|
|------------------------------|        |-----------------------------|
|------------------------------|        |-----------------------------|

|-------------------------------------|
|-------------------------------------|
|-19---17--15--14----21---19--15--19--|
|-------------------------------------|
|-------------------------------------|
|-------------------------------------|

|--------------------------------------------|
|--------------------------------------------|
|-22----17--15----14-------20-----18--20--22-|
|--------------------------------------------|
|--------------------------------------------|
|--------------------------------------------|


REPEAT RIFF 2 (2 TIMES) FAST CONSTANT STRUMMING.
LISTEN TO CD FOR STRUMMING PATTERN.


GUITAR SOLO DURING RIFF 2
|---------------------------------|---------------------------------|
|-18-----18-17----17\11-----11/18-|---------------------------------|
|---------------------------------|/14--12--10--9---/14----14-------|
|---------------------------------|---------------------------------|
|---------------------------------|---------------------------------|
|---------------------------------|---------------------------------|

|------------------------------------------------------------|
|------------------------------------------------------------|
|-14-\12---12-\10--10--9---10--7----10-----------------------|
|--------------------------------------8----5--7---8--7----7-|LET
|------------------------------------------------------------|NOTE RING
|------------------------------------------------------------|OUT

REPEAT RIFF 2 (2 TIMES)


LEAD DURING RIFF 2 (LAST VERSE OF SONG)
(LISTEN TO SONG FOR EXACT PICKING)
|-------------------------------------------------------------------|
|-------------------------------------------------------------------|
|--------------------7---9----10---9----7----5----7-----------------|
|-------------------------------------------------------------------|
|--------------5-----5---7----8----7----5----3----5----5-------5-5--|
|-3---3-5-6-5---------------------------------------------6-5-------|

|---------------------|
|---------------------|
|---------------------|
|---------------------|
|-5----5-4-----5-4--5-|
|---------------------|


REPEAT RIFF 1 (4 TIMES)

LEAD DURING RIFF 1 (LISTEN TO SONG FOR EXACT PICKING,
THIS JUST SHOWS THE NOTES)
|-------------------------------------------------------------------|
|-------------------------------------------------------------------|
|-------------------------------------------------------------------|
|-------------------------------------------------------------------|
|-----------5---5---3---3--------------------------5--5--7-7-8-7----|
|-6--6-5-3----------------6---3--5--5---6---6-5-3-----------------5-|

|-------------------------------------------------------------------|
|-------------------------------------------------------------------|
|----------------7---5--5---------------7--7-5----10---9-9-10-9-----|
|-------------7-------------8--5--7--7---------8-----------------7--|
|-5--8--8-7-5-------------------------------------------------------|
|-------------------------------------------------------------------|


|-5---------------------|
|-7---------------------|
|-7---------------------| LET CHORD RING OUT
|-7---------------------|
|-5---------------------|
|-----------------------|


Fecility

            
            
Suggest correction
Creating personal tab
Creating personal tab
You can edit any tab online and save it as your Personal.

You can edit, replace or remove any tab part or add personal notes – all changes will be seen only by you.

Personal tabs can be accessed anytime from any device, even offline.
Learn more »
comments
print report bad tab
guest
You may want to rate the tab now too:
select rating
Wanna post a correction for this tab? Suggest correction