Oops, an error
Loading. Please wait.

Frizzle Fry bass

version 3
version 3

Whole song

Interactive

by Primus
1,928 views 6 this week
2 commentsread comments
1 2 3 4 5
x 3
add to favorites
×
Save as Personal and add changes to this tab that will be seen only by you. Learn more ›
×
You can save this tab as Personal to edit and correct it or add notes. All changes will be seen only by you. Learn more »
launch autoscroll
font size
0
reset
guitar tuner
edit
Autoscroll
slow
fast
+/-
esc
set tempo
stop
These are all the different parts, enjoy

s = slap
p = pop
v = downstroke
^ = upstroke
~ = let ring
\ = slide up

Intro: slap the G string very lightly with the occasional open D
G-77777777777777888888887777777777---------------------|
D-----------0~----0~----0~-0~---0~------6p5-0------0~--|
A------------------------------------------------------|
E---------------------------------------------1\10-----|
  ssssssssssssssssssssssssssssssss      p   p s    p

Main Riff:
               V                      V                       V                     V  V
G--------------8----------------------7-----------------------8---------------------5--7-|
D-6p5-0------0-8-------0-6p5-0------0-7--------0-6p5-0------0-8--------6p5-0------0-5--7-|
A--------------6----------------------5-----------------------6---------------------3--5-|
E-------1\10------1\10---------1\10-------1\10---------1\10-----1\10---------1\10--------|
  p   p s    p    s    p p   p s    p     s    p p   p s    p   s    p p   p s    p

Main Riff Variation:
             V      V      V     V      V     V      V                      V ^ V ^
G------------7------7------7-----7------7-----7------7----------------------7-7-7-7-|
D-6p5-0------7------7------7-----7------7-----7------7-------0-----0-----0--7-7-7-7-|
A------------5------5------5-----5------5-----5------5----------------------5-5-5-5-|
E-------1\10----x-x---1\10---x-x---1\10---x-x---1\10----1\10--1\10--1\10------------|
  p   p s       s s   s      s s   s      s s   s       s    ps    ps    p

Bridge:
G--------------------------------------------------|
D-------------------------------5--------6-7-6-7---|
A-5-------8--5-------9--5---------5--------------5-|
E---3-4-5------3-4-5------3-4-5-----3-4-5----------|

Mellow part:
G-1-----------------------4------------------|
D---1-1h2-1----1---1--------4-4h5-4----4---4-|
A------------3---2-------------------6---5---|
E--------------------------------------------|

Super fast solo thing: this is close enough
G--------------------------------------------|
D----------------------------333-444-555-666-|
A-5555-355-5555-355-5555-355-----------------|
E--------------------------------------------|

G--------------------------------------------------------|
D---------333---------------333------------333-----------|
A-5555555-----5353555555555-----5035555555-----555333333-|
E--------------------------------------------------------|

            
            
Suggest correction
Creating personal tab
Creating personal tab
You can edit any tab online and save it as your Personal.

You can edit, replace or remove any tab part or add personal notes – all changes will be seen only by you.

Personal tabs can be accessed anytime from any device, even offline.
Learn more »
Give kudos to tab author, rate the tab!
1 2 3 4 5
comments
print report bad tab
2 comments total.
0 reply
Will-eh 221 Apr 02, 2007 09:05 PM

looks alot like mine!

0 reply
Mr. Altoid 10 Jan 05, 2008 06:17 AM

Then both of them must be correct.

guest
You may want to rate the tab now too:
select rating
Wanna post a correction for this tab? Suggest correction