Oops, an error
Loading. Please wait.

Golden Ticket bass

version 1
version 1

Whole song

Interactive

by Primus
1,954 views 12 this week
no commentswrite comment
1 2 3 4 5
x 3
add to favorites
×
Save as Personal and add changes to this tab that will be seen only by you. Learn more ›
×
You can save this tab as Personal to edit and correct it or add notes. All changes will be seen only by you. Learn more »
launch autoscroll
font size
0
reset
guitar tuner
edit
Autoscroll
slow
fast
+/-
esc
set tempo
stop
Author
Difficulty
Primus - Golden Ticket

Not 100% happy with the Bass because I don't have one but this is the best I could hear.

Intro

G||--5---5---5---5---5---5---5---5---|--5---5---5---5---5---5-3-3---6---|
D||----3---3---3---3---3---3---3---3-|----3---3---3---3---3-------3---3-|
A||----------------------------------|----------------------------------|
E||----------------------------------|----------------------------------|

--5---5---5---5---5---5-3-3---6---|--5---5---5---5---5---5-3-3---6---|
----3---3---3---3---3-------3---3-|----3---3---3---3---3-------3---3-|
----------------------------------|----------------------------------|
----------------------------------|----------------------------------|

--5---5---5---5---5-----5-----|--5----------------|--5-----5-----5-----5-----|
----3---3---3---3----3-----3--|-------------------|-----3-----3-----3-----3--|
------------------------------|-------------------|--------------------------|
------------------------------|-------------------|--------------------------|

--4-----4-----4-----4-----|--3-----3-----3-----3-----|--4-----4-----4---------|
-----3-----3-----3-----3--|-----3-----3-----3-----3--|-----3-----3------------|
--------------------------|--------------------------|------------------------|
--------------------------|--------------------------|------------------------|

--5-----5-----5-----5-----|--4-----4-----4-----4-----|
-----3-----3-----3-----3--|-----3-----3-----3-----3--|
--------------------------|--------------------------|
--------------------------|--------------------------|

--3-----3-----3-----3-----|--4-4-4-4-4-4-4-------------|
-----3-----3-----3-----3--|--3-3-3-3-3-3-3-------------|
--------------------------|----------------------------|
--------------------------|----------------------------|

-----3-----4-----3--------|-----x-----x-----3--------|
-----------------x-----x--|-----------------x-----x--|
--1-----2-----1-----------|--1-----2-----1-----------|
--------------------1-----|--------------------1-----|

-----3-----4-----3--------|-----x--x--x-----x--------|
-----------------x-----x--|-----------------x-----x--|
--1-----2-----1-----------|--1-----2-----1-----------|
--------------------1-----|--------------------1-----|

-----3-----4-----3--------|-----x--x--x-----x--------|
-----------------x-----x--|-----------------x-----x--|
--1-----2-----1-----------|--1-----2-----1-----------|
--------------------1-----|--------------------1-----|

-----3-----4-----3--------|-----x--x--x-----x--------|-----3-----4-----3-------|
-----------------x-----x--|-----------------x-----x--|-------------------------|
--1-----2-----1-----------|--1-----2-----1-----------|--1-----2-----1-----4----|
--------------------1-----|--------------------1-----|-------------------------|

---------------------|------------------------------|
---------------------|------------------------------|
--3------------------|------------------------------|
-------2----1--------|--1--1--1--1--1--1--1---------|

Verse:

-----------------------------|----------------------------------|
-----------------------------|------------------------------10--|
--8--x--8--x--8--x--8--9--8--|--8--x--8--x--8--9--8-------------|
-----------------------------|-----------------------0h--8------|

-----------------------------|-------------------------------------|
-----------------------------|-----------------------11--------11--|
--8--x--8--x--8--x--8--9--8--|--8--x--8--9--8--8--9------8--9------|
-----------------------------|-------------------------------------|

-----------------------------|----------------------------------|
-----------------------------|------------------------------10--|
--8--x--8--x--8--x--8--9--8--|--8--x--8--x--8--9--8-------------|
-----------------------------|-----------------------0h--8------|

-----------------------------|-----------------------------|
-----------------------------|-----------------------------|
--8--x--8--x--8--x--8--9--8--|--8--x--8--x--8--9--8--8--x--|
-----------------------------|-----------------------------|

  E  E  E  E  E  E  E  E  E     E  E  E  E  E  E  E  E  E   
-----------------------------|-----------------------------|
-----------------------------|-----------------------------|
--8--x--8--x--8--x--8--9--8--|--7--x--7--x--7--x--7--8--7--|
-----------------------------|-----------------------------|

-----------------------------|---------------------------|
-----------------------------|--9--9--9--9--9--9---------|
--6--x--6--x--6--7--6--6--x--|--7--7--7--7--7--7---------|
-----------------------------|---------------------------|

-----------------------------|-----------------------------|
-----------------------------|-----------------------------|
--8--x--8--x--8--x--8--9--8--|--7--x--7--x--7--x--7--8--7--|
-----------------------------|-----------------------------|

-----------------------------|----------------------------|
-----------------------------|--9--9--9--9--9--9----------|
--6--x--6--x--6--x--6--7--6--|--7--7--7--7--7--7----------|
-----------------------------|----------------------6\----|

Chorus

-----3-----4-----3--------|-----x-----x-----3--------|
-----------------x-----x--|-----------------x-----x--|
--1-----2-----1-----------|--1-----2-----1-----------|
--------------------1-----|--------------------1-----|

-----3-----4-----3--------|-----x--x--x-----x--------|
-----------------x-----x--|-----------------x-----x--|
--1-----2-----1-----------|--1-----2-----1-----------|
--------------------1-----|--------------------1-----|

-----3-----4-----3--------|-----x--x--x-----x--------|
-----------------x-----x--|-----------------x-----x--|
--1-----2-----1-----------|--1-----2-----1-----------|
--------------------1-----|--------------------1-----|

-----3-----4-----3--------|-----x--x--x-----x--------|-----3-----4-----3-------|
-----------------x-----x--|-----------------x-----x--|-------------------------|
--1-----2-----1-----------|--1-----2-----1-----------|--1-----2-----1-----4----|
--------------------1-----|--------------------1-----|-------------------------|

---------------------|------------------------------------|
---------------------|------------------------------------|
--3------------------|-------------------------1s----12s--|
-------2----1--------|--1--1--1--1--1--1--1---------------|

Verse

-----------------------------|----------------------------------|
-----------------------------|----------------------------------|
--8--x--8--x--8--9--8--8--x--|--8--x--8--x--8--9--8-------------|
-----------------------------|-----------------------0h--8h--9--|

-----------------------------|-------------------------------------|
-----------------------------|-----------------------11--------11--|
--8--x--8--x--8--x--8--9--8--|--8--x--8--9--8--8--9------8--9------|
-----------------------------|-------------------------------------|

-----------------------------|----------------------------------|
-----------------------------|----------------------------------|
--8--x--8--x--8--x--8--9--8--|--8--x--8--x--8--9--8-------------|
-----------------------------|-----------------------0h--8p--0--|

--------------------------------|------------------------------|
--------------------------------|--------------/18--18--18\----|
--8--x--8--x--8--9--8--8--9--8--|--8--x--8--x------------------|
--------------------------------|------------------------------|

-----------------------------|-----------------------------|
-----------------------------|-----------------------------|
--8--x--8--x--8--x--8--9--8--|--7--x--7--x--7--x--7--8--7--|
-----------------------------|-----------------------------|

-----------------------------|-----------------------------|
-----------------------------|-----------------------------|
--6--x--6--x--6--x--6--7--6--|--7--x--7--x--7--x--7--8--7--|
-----------------------------|-----------------------------|

-----------------------------|--------------------------------|
-----------------------------|--------------------------------|
--8--x--8--x--8--x--8--9--8--|--7--x--7--x--7--8--7--7--8--7--|
-----------------------------|--------------------------------|

-----------------------------|-------------------------|
-----------------------------|--9--9--9--9-------------|
--6--x--6--x--6--x--6--7--6--|--7--7--7--7-------------|
-----------------------------|-------------------------|

Chorus

--------------------------|-----3-----4-----3--------|
--11--9--9--9-------------|-----------------x-----x--|
---9--7--7--7-------------|--1-----2-----1-----------|
--------------------------|--------------------1-----|

-----x-----x-----3--------|-----3-----4-----3--------|
-----------------x-----x--|-----------------x-----x--|
--1-----2-----1-----------|--1-----2-----1-----------|
--------------------1-----|--------------------1-----|

-----x--x--x-----x--------|-----3-----4-----3--------|
-----------------x-----x--|-----------------x-----x--|
--1-----2-----1-----------|--1-----2-----1-----------|
--------------------1-----|--------------------1-----|

-----x--x--x-----x--------|-----3-----4-----3--------|
-----------------x-----x--|-----------------x-----x--|
--1-----2-----1-----------|--1-----2-----1-----------|
--------------------1-----|--------------------1-----|

-----x--x--x-----x--------|-----3-----4-----3-------|---------------------|
-----------------x-----x--|-------------------------|---------------------|
--1-----2-----1-----------|--1-----2-----1-----5----|--3------------------|
--------------------1-----|-------------------------|-------3----1--------|

------------------------------|-----3-----4-----3-------|---------------------|
------------------------------|--------------------5----|--3------------------|
------------------------------|--1-----2-----1----------|-------3----1--------|
--1--1--1--1--1--1--1---------|-------------------------|---------------------|

Verse

--------------------|-----------------------------|
--------------------|-----------------------------|
--1-----------------|--8--x--8--x--8--x--8--9--8--|
--------------------|-----------------------------|

---------------------------------|-----------------------------|
---------------------------------|-----------------------------|
--8--x--8--x--8--9--8------------|--8--x--8--x--8--9--8-----8--|
-----------------------0h--8--9--|-----------------------6-----|

--------------------------------|-----------------------------|
--------------------------------|-----------------------------|
--8--9--8--8--x--8--9--8-----8--|--8--x--8--x--8--9--8-----8--|
--------------------------6-----|-----------------------6-----|

-----------------------------|--------------------------------|
-----------------------------|--------------------------------|
--8--x--8--x--8--9--8-----8--|--8--x--8--x--8--9--0--3--4--3--|
-----------------------6-----|--------------------------------|

------------------------------------------|----------------------------------|
--------11--------11--------11--------11--|--------------11--------------11--|
--8--9------8--9------8--9------8--9------|--8--x--8--9------8--x--8--9------|
------------------------------------------|----------------------------------|

----------------------------------|----------------------------------|
--------------11--------------11--|--------------11--------------11--|
--8--x--8--9------8--x--8--9------|--8--x--8--9------8--x--8--9------|
----------------------------------|----------------------------------|

----------------------------------|----------------------------------|
--------------11--------------11--|--------------11--------------11--|
--8--x--8--9------8--x--8--9------|--8--x--8--9------8--x--8--9------|
----------------------------------|----------------------------------|

----------------------------------|----------------------------------|
--------------11--------------11--|--------------11--------------11--|
--8--x--8--9------8--x--8--9------|--8--x--8--9------8--x--8--9------|
----------------------------------|----------------------------------|

------------------------------------------|--------------------------------|
--------11--------11--------11--------11--|--------------------------------|
--8--9------8--9------8--9------8--9------|--8--x--8--9--9--8--9--9--8--x--|
------------------------------------------|--------------------------------|

-------------------------------------|--------------------------------|
-------------------------------------|--------------------------------|
--8--x--8--9--9--8--9--9-------------|--8--x--8--9--9--8--9--9--------|
--------------------------0h--8h--9--|--------------------------8--9--|

---------------------------------|--------------------------------|
--------------11-----------------|--------------------------------|
--8--x--8--9------8--9--9--------|--8--x--8--9--9--8--9--9--8--x--|
---------------------------8--9--|--------------------------------|

-------------------------------------|--------------------------------|
-------------------------------------|--------------------------------|
--8--x--8--9--9--8--9--9-------------|--8--x--8--9--9--8--9--9--------|
--------------------------0h--8h--9--|--------------------------8--9--|

Bass/Marimba solo bit

-----------------------|--------------------1--------|
-----------------------|-----3-----3-----3--------3--|
--/8\---------------x--|-----------------------------|
-----------------------|--1-----1-----1--------1-----|

--------------------1--------|--------------------1--------|
-----3-----3-----3--------3--|-----3-----3-----3--------3--|
-----------------------------|-----------------------------|
--1-----1-----1--------1-----|--1-----1-----1--------1-----|

--------------------1--------|--------------1-----------------|
-----3-----3-----3--------3--|-----3-----3--------3--------3--|
-----------------------------|--------------------------------|
--1-----1-----1--------1-----|--1-----1--------1-----1--1-----|

--------------1--------------------|--------------1--------------1--|
-----3-----3-----------------------|-----3-----3--------3-----3-----|
-----------------------------------|--------------------------------|
--1-----1--------1--4--4--4--L--4--|--1-----1--------1-----1--------|

--------------1--------------------|--------------1--------------|
-----3-----3-----------------------|-----3-----3-----------------|
-----------------------------------|-----------------------------|
--1-----1--------4--4--4--4--L--4--|--1-----1--------1--1--4--4--|

--------------1--------------|--------------1--------------1--|
-----3-----3-----------------|-----3-----3--------3-----3-----|
-----------------------------|--------------------------------|
--1-----1--------4--4--4--4--|--1-----1--------1-----1--------|

--------------1--------------1--|--------------1--------------1--|
-----3-----3--------3-----3-----|-----3-----3--------3-----3-----|
--------------------------------|--------------------------------|
--1-----1--------1-----1--------|--1-----1--------1-----1--------|

--------------------------|-----------------------------|
--------------------------|-----------------------------|
--8--x--8--x--8--x--8--x--|--8--x--8--x--8--9--8--8--x--|
--------------------------|-----------------------------|

--------------------------|--------------------------------|
--------------------------|--------------------------------|
--8--x--8--x--8--x--8--x--|--8--x--8--9--8--8--x--8--9--8--|
--------------------------|--------------------------------|

--------------------------|--------------------------------|
--------------------------|--------------------------------|
--8--x--8--x--8--x--8--x--|--8--x--8--9--8--8--x--8--9--8--|
--------------------------|--------------------------------|

--------------------------------|-----------------------------|
--------------------------------|-----------------------------|
--8--x--8--9--8--8--x--8--9--8--|--8--x--8--x--8--x--8--9--8--|
--------------------------------|-----------------------------|

-----------------------------|-----------------------------|
-----------------------------|-----------------------------|
--7--x--7--x--7--x--7--8--7--|--6--x--6--x--6--x--6--7--6--|
-----------------------------|-----------------------------|

Chorus

-------------------------------|-----3-----4-----3--------|
--9--9--9--9--9--9--9----------|-----------------x-----x--|
--7--7--7--7--7--7--7----------|--1-----2-----1-----------|
-------------------------6\----|--------------------1-----|

-----x-----x-----3--------|-----3-----4-----3--------|
-----------------x-----x--|-----------------x-----x--|
--1-----2-----1-----------|--1-----2-----1-----------|
--------------------1-----|--------------------1-----|

-----x--x--x-----x--------|-----3-----4-----3--------|
-----------------x-----x--|-----------------x-----x--|
--1-----2-----1-----------|--1-----2-----1-----------|
--------------------1-----|--------------------1-----|

-----x--x--x-----x--------|-----3-----4-----3--------|
-----------------x-----x--|-----------------x-----x--|
--1-----2-----1-----------|--1-----2-----1-----------|
--------------------1-----|--------------------1-----|

-----x--x--x-----x--------|-----3-----4-----3--------|
-----------------x-----x--|-----------------x-----x--|
--1-----2-----1-----------|--1-----2-----1-----------|
--------------------1-----|--------------------1-----|

-----3-----4-----3--------|-----3-----4-----3--------|
-----------------x-----x--|-----------------x-----x--|
--1-----2-----1-----------|--1-----2-----1-----------|
--------------------1-----|--------------------1-----|

-----3-----4-----3--------|-----3-----4-----3--------|
-----------------x-----x--|-----------------x-----x--|
--1-----2-----1-----------|--1-----2-----1-----------|
--------------------1-----|--------------------1-----|

-----3-----4-----3--------|-----3-----4-----3--------|
-----------------x-----x--|-----------------x-----x--|
--1-----2-----1-----------|--1-----2-----1-----------|
--------------------1-----|--------------------1-----|

-----3-----4-----3--------|-----3-----4-----3-------|---------------------|
-----------------x-----x--|-----------------x-------|---------------------|
--1-----2-----1-----------|--1-----2-----1-----5----|--3------------------|
--------------------1-----|-------------------------|-------3----1--------|


Outro

--------------------------------|-----3-----4-----3-------|
--------------------------------|-----------------x--5----|
--------------------------------|--1-----2-----1----------|
--1--1--1--1--1--1--1----12\----|-------------------------|


-----------------------|--------------------|--------------------|
--3--------------------|--15----------------|---L----------------|
-------3----1----1s----|--13----------------|---L----------------|
-----------------------|--------------------|--------------------|

            
            
Suggest correction
Creating personal tab
Creating personal tab
You can edit any tab online and save it as your Personal.

You can edit, replace or remove any tab part or add personal notes – all changes will be seen only by you.

Personal tabs can be accessed anytime from any device, even offline.
Learn more »
Give kudos to tab author, rate the tab!
1 2 3 4 5
comments
print report bad tab
guest
You may want to rate the tab now too:
select rating
Wanna post a correction for this tab? Suggest correction