Oops, an error
Loading. Please wait.

Jerry Was A Race Car Driver bass

version 4
version 4

Whole song

Interactive

by Primus
21,307 views 21 this week
1 commentread comment
1 2 3 4 5
x 3
add to favorites
×
Save as Personal and add changes to this tab that will be seen only by you. Learn more ›
×
You can save this tab as Personal to edit and correct it or add notes. All changes will be seen only by you. Learn more »
launch autoscroll
font size
0
reset
guitar tuner
edit
Autoscroll
slow
fast
+/-
esc
set tempo
stop
||---------||
||---------||
||---*/*---|| This means repeat the previous bar
||---------||
||---------||
||---------||

H = hammer-on
P = pull-off
T = right hand tap
/ = slide up
\ = slide down
V = downstroke
^ = upstroke
Figure 1:
    T         T            T   T   T
C||-18--------20-----------18--18--18----------||---------||---------||
G||-17--------19-----------17--17--17----------||---------||---------||
D||----------------------------------H10H11H13-||---*/*---||---*/*---||
A||----H11P10----H13P11\10---------------------||---------||---------||
E||--------------------------------------------||---------||---------||
B||--------------------------------------------||---------||---------||

    T         T            T   T   T
C||-18--------20-----------18--18--18----------||
G||-17--------19-----------17--17--17----------||
D||----------------------------------H10/14\10-||
A||----H11P10----H13P11\10---------------------||
E||--------------------------------------------||
B||--------------------------------------------||

Figure 2:
    T         T            T   T   T
C||-20--------20-----------20--20--20-----||
G||-29--------19-----------19--19--19-----||
D||----------------------------------H13\-||
A||----H11P10----H13P11\10-----------H13\-||
E||---------------------------------------||
B||---------------------------------------||

Solo:lots of distortion V ^  V  ^
C||---------------------x-12-13-15-||---------||---------||
G||---------------------x-12-13-15-||---------||---------||
D||--------------------------------||---*/*---||---*/*---||
A||--------------------------------||---------||---------||
E||-0-3P2-0-5P3\2-0--0-------------||---------||---------||
B||--------------------------------||---------||---------||
    s s   s s     s  s

                     V  ^  V  ^  V  ^                        V ^  V  ^
C||------------------15-15-15-15-15-15\-|---------------------x-12-13-15-||
G||------------------15-15-15-15-15-15\-|---------------------x-12-13-15-||
D||-------------------------------------|--------------------------------||
A||-------------------------------------|--------------------------------||
E||-0-3P2-0-5p3\2-0---------------------|-0-3P2-0-5P3\2-0--0-------------||
B||-------------------------------------|--------------------------------||
    s s   s s     s                      s s   s s     s  s

                                                 V ^  V  ^
C||----------------------------------------------x-12-13-15------------------||
G||----------------------------------------------x-12-13-15------------------||
D||--------------------------------------------------------------------------||
A||--------------------------------------------------------------------------||
E||-0-3P2-0-5P3\2-0--0-------0-3P2-0-5p3\2-0--0--------------0-3P2-0-5P3\2-0-||
B||--------------------3--4--------------------------------------------------||
    s s   s s     s  s s  s  s s   s s     s  s              s s   s s     s

Outro:                  V ^  V  ^
C||---------------------x-12-13-15-||---------||---------||-------------------------||
G||---------------------x-12-13-15-||---------||---------||-------------------------||
D||--------------------------------||---*/*---||---*/*---||-------------------------||
A||--------------------------------||---------||---------||-------------------------||
E||-0-3P2-0-5P3\2-0--0-------------||---------||---------||-0-3P2-0-5P3\2-0--0------||
B||--------------------------------||---------||---------||--------------------3--4-||
    s s   s s     s  s                                      s s   s s     s  s s  s

                        V ^  V  ^                     V  ^  V
C||---------------------x-12-13-15-|------------------15-15-15-13\x-11\-||
G||---------------------x-12-13-15-|------------------15-15-15----------||
D||--------------------------------|------------------------------------||
A||--------------------------------|------------------------------------||
E||-0-3P2-0-5P3\2-0--0-------------|-0-3P2-0-5P3\2-0--------------------||
B||--------------------------------|------------------------------------||
    s s   s s     s  s               s s   s s     s

       T  T  T  T    T  T  T  T  T  T  T  T
C||----18-18-21-21---18-18-18-18-21-21-21-18-||
G||----17-17-20-20---17-17-17-17-20-20-20-17-||
D||------------------------------------------||
A||------------------------------------------||
E||------------------------------------------||
B||-0----------------------------------------||

    T  T  T  T  T  T  T  T  T  T  T  T  T  T  T  T
C||-18-18-18-18-21-21-21-18-18-18-18-18-21-21-21-18-||
G||-17-17-17-17-20-20-20-17-17-17-17-17-20-20-20-17-||
D||-------------------------------------------------||
A||-------------------------------------------------||
E||-------------------------------------------------||
B||-------------------------------------------------||

    T  T  T  T  T  T  T  T  T  T  T  T  T 
C||-18-18-18-18-21-21-21-18-18-18-18-18-21--------|-----------------||
G||-17-17-17-17-20-20-20-17-17-17-17-17-20--------|-----------------||
D||-----------------------------------------------|-----------------||
A||-----------------------------------------------|-----------------||
E||-----------------------------------------(12)\-|-0--(2)/12---12\-||
B||-----------------------------------------------|-----------------||
                                             s      s   s        s

                        V ^  V  ^
C||---------------------x-12-13-15-||---------||---------||-----------------||
G||---------------------x-12-13-15-||---------||---------||-----------------||
D||--------------------------------||---*/*---||---*/*---||-----------------||
A||--------------------------------||---------||---------||-----------------||
E||-0-3P2-0-5P3\2-0--0-------------||---------||---------||-0-3P2-0-5P3\2-0-||
B||--------------------------------||---------||---------||-----------------||
    s s   s s     s  s                                      s s   s s     s

            
            
Suggest correction
Creating personal tab
Creating personal tab
You can edit any tab online and save it as your Personal.

You can edit, replace or remove any tab part or add personal notes – all changes will be seen only by you.

Personal tabs can be accessed anytime from any device, even offline.
Learn more »
Give kudos to tab author, rate the tab!
1 2 3 4 5
comments
print report bad tab
1 comment total.
0 reply
owencarr13 10 May 15, 2017 02:30 PM

What do the parenthesis mean in the second to last bar?

guest
You may want to rate the tab now too:
select rating
Wanna post a correction for this tab? Suggest correction