Oops, an error
Loading. Please wait.

Kalamazoo bass

version 1
version 1

Whole song

Interactive

by Primus
6,990 views 6 this week
1 commentread comment
1 2 3 4 5
x 3
add to favorites
×
Save as Personal and add changes to this tab that will be seen only by you. Learn more ›
×
You can save this tab as Personal to edit and correct it or add notes. All changes will be seen only by you. Learn more »
launch autoscroll
font size
0
reset
guitar tuner
edit
Autoscroll
slow
fast
+/-
esc
set tempo
stop
Author
-------------------------------------------------------------------------------
			     KALAMAZOO - Primus
-------------------------------------------------------------------------------

Tabbed By : Lawrence Hill
e-mail: ozloz@hotmail.co.uk

Tuning: EADG

This is just a basic tab to this song, it sounds right and its one of the only tabs for
4-string Kalamazoo. Its pretty easy to figure out where the intro and main riff go. The 
of the main riff is played during the guitar solo, it should be pretty easy to fill in 
if you listen to the song. Its all slapped.

Intro:
G|------------------------------------6--------------------------------------|
D|---------------------------------------------------------------------------|
A|--4---4-4-4---4---4-4-4---4-4-4-4------------------------------------------|
E|---------------------------------------------------------------------------|

Variation:
G|------------------------------------20-------------------------------------|
D|------------------------------------20-------------------------------------|
A|--4---4-4-4---4---4-4-4---4-4-4-4------------------------------------------|
E|---------------------------------------------------------------------------|

Main Riff:
G|--12-------------12----------15-12----------------12-----------------------|
D|--12-------------12----------15-12----------------12-----------------------|
A|---------------------------------------------------------------------------|
E|----0--3--5h6--0----0--3--5--------0--3--5h6--0------0--3--0---------------|

Variation:
G|--14-------------14----------17-14----------------14-----------------------|
D|--14-------------14----------17-14----------------14-----------------------|
A|---------------------------------------------------------------------------|
E|----0--5--7h8--0----0--5--7--------0--5--7h8--0------0--5--0---------------|

Bridge:
G|--12-------------12----------15-12----------------12-----x-----x-----x----x|
D|--12-------------12----------15-12----------------12-----------------------|
A|---------------------------------------------------------------------------|
E|----0--3--5h6--0----0--3--5--------0--3--5h6--0------x-x---x-x---x-x--x-x--|


Enjoy

| /  slide up
| \  slide down
| h  hammer-on
| p  pull-off
| ~  vibrato
| +  harmonic
| x  Mute note
===============================================================================

            
            
Suggest correction
Creating personal tab
Creating personal tab
You can edit any tab online and save it as your Personal.

You can edit, replace or remove any tab part or add personal notes – all changes will be seen only by you.

Personal tabs can be accessed anytime from any device, even offline.
Learn more »
Give kudos to tab author, rate the tab!
1 2 3 4 5
comments
print report bad tab
1 comment total.
-1 reply
JAStewart 7,264 Aug 25, 2014 01:19 PM

Clearly wrong.

guest
You may want to rate the tab now too:
select rating
Wanna post a correction for this tab? Suggest correction