Oops, an error
Loading. Please wait.

The Last Superpower Aka Rapscallion bass

version 2
version 2

Whole song

Interactive

by Primus
803 views 1 this week
no commentswrite comment
1 2 3 4 5
2 more votes to show rating
add to favorites
×
Save as Personal and add changes to this tab that will be seen only by you. Learn more ›
×
You can save this tab as Personal to edit and correct it or add notes. All changes will be seen only by you. Learn more »
launch autoscroll
font size
0
reset
guitar tuner
edit
Autoscroll
slow
fast
+/-
esc
set tempo
stop
Author
Difficulty
This is my first time tabbing anything!!! I love this tune and its amazing live.I hope 
all enjoy!  please leave me a rating! only because I feel my tabs are pretty spot on and 
others to notice so they can reference this.....thanks again!

Also make sure to mute all the strings with your fretting hand while doing the tapping!!!


He uses a line6 dl4 delay modeler. He uses the modulation setting.
Various tapped harmonics until :43

I suggest this...

G----11-----------(24)
A----0------------( 0) Tap over the notes that are circled dont sound them.


Intro :43

E--7------------------------|   x2
B----8---6-5-5---8----------|(hold)


Song kicks in at :58
G------------------X(23)-X(21)--------------x(23)-X(21)-------|
D-----------------------------X(20)---------------------X(20--|
A-------------------------------------------------------------|
E-7----------------------------------7------------------------|
B---8--0--6--0--(5)SLIDE DOWN----------8-0-6------------------|

Les slides up to a B note at 1:12 , 1:28 ,2:22,3:16

G-X(23)-X(21)----------------------------------|
D-------------X(20)----------------------------|
A----------------------------------------------|
E--------------------7-------------------------|
B----------------------8--0-(6)slide up to--12-|

Also when he plays this live he throws this part in..

"I eat California condor for my Thanksgiving meal".

G-------------------------------------------------|
D-------------------------------------------------|
A-------------------------------------------------|
E-------------------------7-----------------------|
B----------------------------8---0--6-------X0----|X0

At 1:29 and 2:23 bit of a change

G-------------x(19)-x(18)-------|
D-------------------------x(17)-|
A-------------------------------|
E---7---------------------------|
B------8--0--5------------------|


At 1:44 and at 2:38

I dont like....I dont like You!

PART 1
G------X(19)-X(18)---------X(19)-X(18)----------------------|
D------------------X(17)---------------X(17)----------------|
A-----------------------------------------------------------|
E---------------------------------------------SLIDE UP TO-3-|
B-2-2-----------------------------------------2-2-----------|

PART 2
G---------X(19)-X(18)------X(19)-X(17)---------------------|
D--------------------X(17)------------X(17)----------------|
A----------------------------------------------------------|
E-------------------------------------------------5**------|
B-4*---2-2----------------------------------2-2--------6*--|
  *OPTIONAL.   **SLIDE UP TO AND SHAKE

Both these parts are played twice but for part2 leave out the tapping
on the 2nd time around.

The change at 3:24

G--------------------------------------------------------------|
D--------------------------------------------------------------|
A--------------------------------------------------------------|
E-----7--10*-----7--10*-----7--10*------7-10--12*-13*-14*--10--|
B-5^8--------5^8--------5^8--------5^8-------------------------|

*For the the 10th fret slide back to 7. The others slide up.

Also there are variations.

           "HEY! ..HEY!..HEY!"
G------------------------      G---------------------------|
D------------------------      D---------------------------|
A------------------------      A----------------------17---|
E-----7--10---13*-14*-15*      E----7-10---12*-13*-14*-----|
B-5^8--------------------      B-5^8-----------------------|

*slide up  ** slide back down

Im still not sure about this part but this does sound close.
The transition at 4:06

G-------------------------------------|
D-------------------------------------|
A-----------------------17------------|
E------7--10----13-14-15----15--13----|
B--5^8-----------------------------15-|


The surreal part begins at 4:09
Im still having trouble tapping in rythym.

G-----13--13--13---13---13----13--13---13-|
D-------12------12---------12-------12----|
A---5------------------5------------------|
E-----4---5---2----------4--5--2-5--0-----|
B-----------------------------------------|

Les ends this section at 4:40 with this..

G--13----13--13---------|
D-----12----------------|
A--5--------------------|
E----4---5--2---5-----7-|
B---------------------0-|


For the part that follows he is using his long fret board to
his advantage hitting some harmonics that only Carl Thompson
can give you........use the dl4 and improvise and he is
definitely hitting some low b notes.

For the rest of the song just refer to the same parts as above
but the tail end goes like this.

Starts at 6:57 and repeat   and at 7:09
G---------------            G---------------------|
D---------------            D---------------------|
A---------------            A---------------------|
E--7------------            E------7-----10-------|
B----8--6-5--5-8            B--5^8----------------|      FIN.

            
            
Suggest correction
Creating personal tab
Creating personal tab
You can edit any tab online and save it as your Personal.

You can edit, replace or remove any tab part or add personal notes – all changes will be seen only by you.

Personal tabs can be accessed anytime from any device, even offline.
Learn more »
Give kudos to tab author, rate the tab!
1 2 3 4 5
comments
print report bad tab
guest
You may want to rate the tab now too:
select rating
Wanna post a correction for this tab? Suggest correction