Oops, an error
Loading. Please wait.

To Defy The Laws Of Tradition bass

version 2
version 2

Whole song

Interactive

by Primus
22,057 views 75 this week
2 commentsread comments
1 2 3 4 5
x 15
add to favorites
×
Save as Personal and add changes to this tab that will be seen only by you. Learn more ›
×
You can save this tab as Personal to edit and correct it or add notes. All changes will be seen only by you. Learn more »
launch autoscroll
font size
0
reset
guitar tuner
edit
Autoscroll
slow
fast
+/-
esc
set tempo
stop
Author
Difficulty
intermediate
primus - to defy the laws of tradition
Abum - Frizzle Fry

i have changed this tab a bit i've corrected all the
open notes played on the E string during the intro.
And i've also chabged the tapping part of the song a 
little bit

[Intro]
G|--9-9-9-9-9-9-9-9-|
D|---------6-6-7-7--|
A|-7-7-7-7----------|
E|------------------|

G|--9-9-9-9-9-9-9------|
D|---------6-6-7-6h7p6-|
A|-7---7-7-------------| x2
E|---0-----------------|

G|--9-9-9-9-9-9-9-9-9--|
D|-5-5-5-5-5-----------|
A|-----------5-5-6-7---|
E|-------------------0-|

G|--9-9-9-9-9-9-9-9-|
D|------------------|
A|-7-7-7-7-7-7-7-7--|
E|------------------|

G|--9-9-9-9-9-9-9------|
D|---------6-6-7-6h7p6-|
A|-7---7-7-------------| x3
E|---0-----------------|

G|--9-9-9-9-9-9-9-9-9--9-9-9-9-|
D|-5-5-5-5-5-------------------|
A|-----------5-5-6-7--7-7-7-7--|
E|-------------------0---------|

G|--9-9-9-9-9-9-9-9-9-9-9-9-9-9-9-9-|
D|---------8-8-8-8---------8-8-8-8--|
A|-7-7-7-7---------7-7-7-7----------|
E|----------------------------------|

[Pre-verse]
G|-7--8--9~-|
D|-7--8--9~-|
A|-5--6--7~-|
E|----------|


I've tried to notate the strumming pattern that i use dunno 
if it'll be of any help but its there

V -  downstroke
^ - Upstroke

[Verse]
main riff
            ^V^V  V          ^V^ ^V^ 
G|----------x666--6----------x66-x76--|
D|----------x666--6----------x66-x76--|
A|----------x444--4----------x44-x54--|
E|-xx3h5-3h6--------xx3h5-3h6---------|
   sss   s          sss   s 

tapping part

R - right hand tap
T - left hand tap

   t r r  t r r  t r r  t r r  t r r
G|------------------------------------|
D|---1515---1515---1515---1515---1515-| they are 11's not ones!!
A|-6-1515-7-1515---1515---1515---1515-| 
E|---------------7------6------5------|

the bit after that is upto you i suppose just right hand
tap from the 15th frets and go up and down the neck as 
far as it sounds right and come back to the 15th

for example
G|------------------------------------|
D|-1111111212131315151616141413131111-|
A|-1111111212131315151616141413131111-|
E|------------------------------------|

shouldn't take too long to get it sounding right

right well thats all you need to play the song i know
there are some other little riffs and weird slides that les
does but i'm still figuring them out



************************************

| h  Hammer-on
| p  Pull-off
| ~  Vibrato
| x  Dead note
| s  Slap

************************************

            
            
Suggest correction
Creating personal tab
Creating personal tab
You can edit any tab online and save it as your Personal.

You can edit, replace or remove any tab part or add personal notes – all changes will be seen only by you.

Personal tabs can be accessed anytime from any device, even offline.
Learn more »
comments
print report bad tab
2 comments total.
0 reply
jk41 753 Jul 05, 2017 03:50 AM, edited at 07:50 am

just watching a studio jam its a bit different---------x-6-6-6--6-------------xx-6-x-7-6---------x-6-6-6--6-------------xx-6-x-7-6---------x--------4-------------xx---------4h6-5h7-------------xx-4h6-5h7-----------

0 reply
jk41 753 Jul 05, 2017 03:56 AM

sorry thats shit^^^

guest
You may want to rate the tab now too:
select rating
Wanna post a correction for this tab? Suggest correction