Oops, an error
Loading. Please wait.

Controversy chords

by Prince
1,642 views 75 this week
no commentswrite comment
1 2 3 4 5
3 more votes to show rating
add to favorites
×
Save as Personal and add changes to this tab that will be seen only by you. Learn more ›
×
You can save this tab as Personal to edit and correct it or add notes. All changes will be seen only by you. Learn more »
launch autoscroll
font size
0
reset
transpose
0
reset
simplify chords
display chords
guitar tuner
edit
Autoscroll
slow
fast
+/-
esc
set tempo
stop
Author
Difficulty
Strumming
There is no strumming pattern for this song yet. and get +5 IQ
[Intro]

   Keyboard
   F#7sus4
E|-------------------|-------------------|--------------------|-------------------|
B|-------------------|-------------------|--------------------|-------------------|
G|-------------------|-------------------|--------4-2~--------|-------------------|
D|-------------4-----|-------------------|--------6-4~--------|-------------------|
A|-4---6-----7---4---|-4---6-----7-------|--------------------|-------------------|
E|-------------------|-------------------|--------------------|-------------------|
 |                   |                   |                    |                   |
 | Guitar            |                   |                    |                   |
E|-------------------|-------------------|--------------------|-------------------|
B|-7---7-x-x-7-x-7---|-7---7-x-x-7-x-x-x-|-7-7-7-7-7---x-x-7--|-7-------7---x-x-x-|
G|-9---9-x-x-9-x-9---|-9---9-x-x-9-x-x-x-|-9-9-9-9-9---x-x-9--|-9---9-9-9---x-x-x-|
D|-------------------|-------------------|--------------------|-----9-9-----------|
A|-------------------|-------------------|--------------------|-------------------|
E|-------------------|-------------------|--------------------|-------------------|

[Verse 1]
F#7sus4
I just can't believe all the things people say (controversy)
F#7sus4
Am I black or white? am I straight or gay? (controversy)

[Chorus 1]

   Keyboard
   D#m7              C#                  B
E|-----------2-4-6-|-4-2---------2-4-6-|-4-2-------------|-----------------|
B|-------2-4-------|-----4-----4-------|-----4-----------|-----------------|
G|-----------------|-------------------|-----------------|-----------------|
D|-----------------|-------------------|-----------------|-----------------|
A|-----------------|-------------------|-----------------|-----------------|
E|-----------------|-------------------|-----------------|-----------------|
 |                 |                   |                 |                 |
 | Guitar          |                   |                 |                 |
E|-----------------|-------------------|---------9---9---|-----9-x-7-------|
B|-----------------|-------------------|---------9-x-9---|-----9-x-7-------|
G|-----------------|-------------------|-----------------|-----------------|
D|-----------------|-------------------|-----------------|-----------------|
A|-----------------|-------------------|-----------------|-----------------|
E|-----------------|-------------------|-----------------|-----------------|

D#m7               C#                   B                 F#7sus4
   Do I believe in god? do I believe in me? (controversy)

[Verse 2]
F#7sus4
I can't understand human curiosity (controversy)
F#7sus4
Was it good for you? Was I what you wanted me to be? (controversy)

[Chorus 2]

   Keyboard
   D#m7              C#                  B
E|-----------2-4-6-|-4p2---------2-4-6-|-4p2-------------|-----------------|
B|-------2-4-------|-----4-----4-------|-----4-----------|-----------------|
G|-----------------|-------------------|-----------------|-----------------|
D|-----------------|-------------------|-----------------|-----------------|
A|-----------------|-------------------|-----------------|-----------------|
E|-----------------|-------------------|-----------------|-----------------|
 |                 |                   |                 |                 |
 | Guitar          |                   |                 |                 |
E|-9---------------|-9-x-9-9-7-9-------|-9-x-9-9-7-9-----|-9-x-9-9-7-9-----|
B|-9---------------|-9-x-9-9-7-9-------|-9-x-9-9-7-9-----|-9-x-9-9-7-9-----|
G|-----------------|-------------------|-----------------|-----------------|
D|-----------------|-------------------|-----------------|-----------------|
A|-----------------|-------------------|-----------------|-----------------|
E|-----------------|-------------------|-----------------|-----------------|

D#m7          C#                    B                  F#7sus4
   Do you get high? does your daddy cry? (controversy)

[Chorus 3]
D#m7               C#                   B 
   Do I believe in god? do I believe in me?
D#m7                 C#                 B 
   Some people wanna die so they can be free
D#m7                    C#                      B 
(I said) life is just a game, were all just the same (do you wanna play?)

[Break]
F#7sus4
D#m7 C# B x3
F#7sus4

[Chorus 4]
D#m7               C#                   B 
   Do I believe in god? do I believe in me?  let me tell ya...
D#m7                 C#                 B 
   Some people wanna die so they can be free
D#m7                    C#                      B 
(I said) life is just a game, were all just the same (do you wanna play?)

[Outro]
F#7sus4

            
            
Suggest correction
Creating personal tab
Creating personal tab
You can edit any tab online and save it as your Personal.

You can edit, replace or remove any tab part or add personal notes – all changes will be seen only by you.

Personal tabs can be accessed anytime from any device, even offline.
Learn more »
Give kudos to tab author, rate the tab!
1 2 3 4 5
comments
print report bad tab
guest
You may want to rate the tab now too:
select rating
Wanna post a correction for this tab? Suggest correction