Oops, an error
Loading. Please wait.

Do Me Baby chords

version 2
version 2

Whole song

  • Piano arranged for guitar with sample guitar figure.
by Prince
397 views 9 this week
no commentswrite comment
1 2 3 4 5
1 last vote to show rating
add to favorites
×
Save as Personal and add changes to this tab that will be seen only by you. Learn more ›
×
You can save this tab as Personal to edit and correct it or add notes. All changes will be seen only by you. Learn more »
launch autoscroll
font size
0
reset
transpose
0
reset
simplify chords
display chords
guitar tuner
edit
Autoscroll
slow
fast
+/-
esc
set tempo
stop
Author
Difficulty
About this tab version
Piano arranged for guitar with sample guitar figure. Was this info helpful? Yes No
Strumming
There is no strumming pattern for this song yet. and get +5 IQ
[Intro]

   Emaj9                               D#m7        G#m
E|-----------------|-----------------|-----------------|-----------------|
B|-7---7---7---7---|-7---7---7---7---|-2---2---2---4---|-4---4---4---4---|
G|-8---8---8---8---|-8---8---8---8---|-3---3---3---4---|-4---4---4---4---|
D|-9---9---9---9---|-9---9---9---9---|-4---4---4---6---|-6---6---6---6---|
A|-----------------|-----------------|-----------------|-----------------|
E|-----------------|-----------------|-----------------|-----------------|

Emaj9 D#m7 G#m x2

[Verse 1]
Emaj9                  D#m7          G#m
   Here we are in this big old empty room
Emaj9                 D#m7 G#m
   Staring each other down
Emaj9                          D#m7   G#m
   You want me just as much as I want you
Emaj9                  D#m7  G#m
   Let's stop fooling around
Emaj9            D#m7        G#m
   Take me baby, kiss me all over
Emaj9           D#m7  G#m
   Play with my love
Emaj9                              D#m7    G#m
   Bring out what's been in me for far too long
Emaj9                                  D#m7     G#m
   Baby, you know that's all I've been dreaming of

[Chorus 1]
Emaj9                D#m7         G#m
Do me baby, like you never done before
Emaj9                   D#m7            G#m
   Give it to me till I just can't take no more
            Emaj9                D#m7         G#m
Come on and do me baby, like you never done before
Emaj9                D#m7            G#m
   I want you now, I just can't wait no more, can't wait

[Verse 2]
Emaj9          D#m7          G#m
   Here we are looking for a reason
Emaj9            D#m7 G#m
   You to lay me down
Emaj9                      D#m7         G#m
   For a love like ours is never out of season
Emaj9                          D#m7  G#m
   So baby please stop teasing me
Emaj9                 D#m7          G#m
   What you do, I can never love no other
Emaj9                     D#m7 G#m
   You're the best I ever had
Emaj9                 D#m7          G#m
   Whenever we're not close to one another
Emaj9                 D#m7 G#m
   I just want you so bad

[Chorus 2]
Emaj9                D#m7         G#m
Do me baby, like you never done before
Emaj9                   D#m7            G#m
   Give it to me till I just can't take no more
            Emaj9                D#m7         G#m
Come on and do me baby, like you never done before
Emaj9                D#m7            G#m
   I want you now, I just can't wait no more, can't wait

[Spoken Word]
Emaj9 D#m7 G#m

[Outro]

   C#7sus4        B6/9           G#m11          F#9sus4        Bsus2
E|-4------------|-4------------|-4------------|-4------------|-2------------|
B|-2------------|-2------------|-2------------|-2------------|-2------------|
G|-4------------|-4------------|-4------------|-4------------|-4------------|
D|-4------------|-4------------|-4------------|-4------------|-4------------|
A|-4------------|-2------------|--------------|--------------|-2------------|
E|--------------|--------------|-4------------|-2------------|--------------|

            
            
Suggest correction
Creating personal tab
Creating personal tab
You can edit any tab online and save it as your Personal.

You can edit, replace or remove any tab part or add personal notes – all changes will be seen only by you.

Personal tabs can be accessed anytime from any device, even offline.
Learn more »
Give kudos to tab author, rate the tab!
1 2 3 4 5
comments
print report bad tab
guest
You may want to rate the tab now too:
select rating
Wanna post a correction for this tab? Suggest correction