Oops, an error
Loading. Please wait.

Head chords

by Prince
271 views 9 this week
1 commentread comment
1 2 3 4 5
1 last vote to show rating
add to favorites
×
Save as Personal and add changes to this tab that will be seen only by you. Learn more ›
×
You can save this tab as Personal to edit and correct it or add notes. All changes will be seen only by you. Learn more »
launch autoscroll
font size
0
reset
transpose
0
reset
simplify chords
display chords
guitar tuner
edit
Autoscroll
slow
fast
+/-
esc
set tempo
stop
Author
Difficulty
About this tab version
Keyboard arranged for guitar with sample guitar and keyboard figure. Was this info helpful? Yes No
Strumming
There is no strumming pattern for this song yet. and get +5 IQ
[Intro]

A7sus4
Am7 D/A Am7 D/A Am7 x4

   Keyboard
       Am7   D/A  Am7 D/A Am7                   Am7   D/A  Am7 D/A Am7
E|-----8-----5----3---5-|-----------------|-----5-----5----3---5-|-----------------|
B|-----8-----7----5---7-|-----------------|-----5-----7----5---7-|-----------------|
G|-----9-----7----5---7-|-----------------|-----5-----7----5---7-|-----------------|
D|----------------------|-----------------|----------------------|-----------------|
A|----------------------|-----------------|----------------------|-----------------|
E|----------------------|-----------------|----------------------|-----------------|
 |                      |                 |                      |                 |
 | Guitar               |                 |                      |                 |
E|----------------------|-----------------|----------------------|-----------------|
B|----------------------|-----------------|----------------------|-----------------|
G|-2------------4-5-----|---2-----2-------|-2------------4-5-----|---2-----2-------|
D|-2------------5-5-----|-------5---2-5---|-2------------5-5-----|-------5---2-5---|
A|----------------------|-----------------|----------------------|-----------------|
E|----------------------|-----------------|----------------------|-----------------|

[Verse 1]
Am7
I remember when I met you, baby
Am7
You were on your way to be wed
Am7
You were such a sexy thing
Am7
I loved the way you walked the things you said
Am7
I was so nonchalant
Am7
I didn't want you to be misled
Am7
But I've got to have you, baby
Am7
I got to have you in my bed
Am7
You said, "But I just a virgin and I'm
Am7
On my way to be wed
Am7
But you're such a hunk
   Dm7  D#m7 Em7
So full of   spunk" I'll give you

[Chorus 1]
Am7 D/A Am7 D/A Am7
Head            Till you're burning up         
Am7 D/A Am7 D/A Am7
Head            Till you get enough
Am7 D/A Am7 D/A Am7
Head            Till your love is red
Am7 D/A Am7 D/A Am7
Head            Love you till you're dead

[Break 1]
Am7 D/A Am7 D/A Am7 x2
A7sus4

[Verse 2]
Am7
You know you're good, girl
Am7
I think you like to go down
Am7
You wouldn't have stopped
Am7
But I, I came on your wedding gown
Am7
And you said, "I must confess
Am7
I wanna get undressed and go to bed."
Am7
With that I jammed, you fool
Am7                         Dm7      D#m7      Em7
You married me instead, now morning, noon, and night I'll give you

[Chorus 2]
Am7 D/A Am7 D/A Am7
Head            Till you're burning up         
Am7 D/A Am7 D/A Am7
Head            Till you get enough
Am7 D/A Am7 D/A Am7
Head            Till your love is red
Am7 D/A Am7 D/A Am7
Head            Love you till you're dead

[Break 2]
Am7 D/A Am7 D/A Am7 x2
A7sus4
Am7 D/A Am7 D/A Am7 x4

[Solo]
Am7 D/A Am7 D/A Am7 x12

[Chorus 3]
N.C.
Head till you're burning up         
N.C.
Head till you get enough
N.C.
Head till your love is red
N.C.
Head love you till you're dead

[Outro]
Am7 D/A Am7 D/A Am7

            
            
Suggest correction
Creating personal tab
Creating personal tab
You can edit any tab online and save it as your Personal.

You can edit, replace or remove any tab part or add personal notes – all changes will be seen only by you.

Personal tabs can be accessed anytime from any device, even offline.
Learn more »
Give kudos to tab author, rate the tab!
1 2 3 4 5
comments
print report bad tab
1 comment total.
0 reply
funkypunkk1 19 Mar 28, 2017 08:59 AM

I'm not a 100% sure if it's correct, but I like it. Here's a 5.

guest
You may want to rate the tab now too:
select rating
Wanna post a correction for this tab? Suggest correction