Oops, an error
Loading. Please wait.

Just As Long As Were Together bass

by Prince
235 views 1 this week
no commentswrite comment
1 2 3 4 5
3 more votes to show rating
add to favorites
×
Save as Personal and add changes to this tab that will be seen only by you. Learn more ›
×
You can save this tab as Personal to edit and correct it or add notes. All changes will be seen only by you. Learn more »
launch autoscroll
font size
0
reset
guitar tuner
edit
Autoscroll
slow
fast
+/-
esc
set tempo
stop
Author
                             Just As Long As We're Together
                                      Prince

Bass                                                                Prince 

As played by Prince

Intro

G|-----5-------4---|---2---------4-4-|-----5-------4---|---2-------2-2-4-|
D|-----------------|-----------------|-----------------|-----------------|
A|-3-3-----2-2-----|-0-----2---------|-3-3-----2-2-----|-0-----2---------|
E|-----------------|-----------------|-----------------|-----------------|
   S E.Q   E E Q     E.S E Q.    E E   E E Q   E E Q     E.S E Q   E S E.

G|-----5-------4---|---2-------2-2-4-|---9-7-------------------------|
D|-----------------|-----------------|-------9-8-7-5-7-9-7-5-7-5-----|
A|-3-3-----2-2-----|-0-----2---------|---------------------------7-5-|
E|-----------------|-----------------|-------------------------------|
   E E Q   E E Q     E.S E Q   E S E.  E S S S S S S S S S S S S S S

G|-----------------|
D|-----------------|
A|-7---------------|
E|-----------4-----|
   E E Q.    Q.

Verse 1

G|-----------------|-----------------|-----------------|-----------------7-|
D|-----------------|-----------------|-----------------|---------5h7-7-----|
A|-----------------|---------------1-|-2-2---2---2---2-|---7-----------5---|
E|-3-3---3---3---3-|-5-5---5---5-----|-----------------|-0---5-5-----------|
   E E E E E E E E   E E E E E E E E   E E E E E E E E   E E E E S S E E E

G|-----------------|-----------------|-----------------|-----------------7-|
D|-----------------|-----------------|-----------------|---------5h7-7-----|
A|-----------------|---------------1-|-2-2---2---2---2-|---7-----------5---|
E|-3-3---3---3---3-|-5-5---5---5-----|-----------------|-0---5-5-----------|
   E E E E E E E E   E E E E E E E E   E E E E E E E E   E E E E S S E E E

G|-----------------|---------------2-3-|-4---------------|-----------------|
D|-----------------|-------------------|-----------------|-----------------|
A|-----------------|-------------------|-----------------|-----------4-----|
E|-0-0---0---0---1-|-3-3---3---3-------|-----------------|-----------------|
   E E E E E E E E   E E E E E E E S S   E E H.            H       E Q.

Chorus 1

G|-----5-------4---|---2--------/4---|---------------------|-----5-5-5-----5---|
D|-----------------|-----------------|/2--------------/2---|-------------------|
A|-3-------2-2-----|-0-----2---2-----|---------------------|-3-3-------3-3-----|
E|-----------------|-----------------|-------x-0-0-0-0-----|-------------------|
   Q   Q   E E Q     E.S E E E.S Q     Q   S S S S E E Q     E.S S S E E E Q

G|---------------------|-----5-5-5---------|---9-7-------------------------|
D|/2--------------/2---|-------------------|-------9-8-7-5-7-9-7-5-7-5-----|
A|---------------------|-3-3-------3-3-1---|---------------------------7-5-|
E|-------x-0-0-0-0-----|-------------------|-------------------------------|
   Q   S S S S E E Q     E.S S S E E E Q     E S S S S S S S S S S S S S S

G|-----------------|
D|-----------------|
A|-7---------------|
E|-----------4-----|
   E E Q.    Q.

Verse 2

G|-----------------|-----------------|-----------------|-----------------7-|
D|-----------------|-----------------|-----------------|---------5h7-7-----|
A|-----------------|-----------------|-2-2---2---2---2-|---7-----------5---|
E|-3-3---3---3---4-|-5-5---5---5---5-|-----------------|-0---5-5-----------|
   E E E E E E E E   E E E E E E E E   E E E E E E E E   E E E E S S E E E

G|-----------------|-----------------|-----------------|-----------------7-|
D|-----------------|-----------------|-----------------|---------5h7-7-----|
A|-----------------|---------------1-|-2-2---2---2---2-|---7-----------5---|
E|-3-3---3---3---3-|-5-5---5---5-----|-----------------|-0---5-5-----------|
   E E E E E E E E   E E E E E E E E   E E E E E E E E   E E E E S S E E E

G|-----------------|---------------2-3-|-4---------------|-----------------|
D|-----------------|-------------------|-----------------|-----------------|
A|-----------------|-------------------|-----------------|-----------4-----|
E|-0-0---0---0---1-|-3-3---3---3-------|-----------------|-----------------|
   E E E E E E E E   E E E E E E E S S   E E H.            H       E Q.

Chorus 2

G|-----5-------4---|---2--------/4---|-----5-------4---|---2--------/4---|
D|-----------------|-----------------|-----------------|-----------------|
A|-3-------2-2-----|-0-----2---2-----|-3-------2-2-----|-0-----2---2-----|
E|-----------------|-----------------|-----------------|-----------------|
   Q   Q   E E Q     E.S E E E.S Q     Q   Q   E E Q     E.S E E E.S Q

G|-----5-------4---|---2--------/4---|---------------------|-----5-5-5-----5---|
D|-----------------|-----------------|/2--------------/2---|-------------------|
A|-3-------2-2-----|-0-----2---2-----|---------------------|-3-3-------3-3-----|
E|-----------------|-----------------|-------x-0-0-0-0-----|-------------------|
   Q   Q   E E Q     E.S E E E.S Q     Q   S S S S E E Q     E.S S S E E E Q

G|---------------------|-----5-5-5---------|---9-7-------------------------|
D|/2--------------/2---|-------------------|-------9-8-7-5-7-9-7-5-7-5-----|
A|---------------------|-3-3-------3-3-1---|---------------------------7-5-|
E|-------x-0-0-0-0-----|-------------------|-------------------------------|
   Q   S S S S E E Q     E.S S S E E E Q     E S S S S S S S S S S S S S S

G|-----------------|-----------------|-----------------|
D|-----------------|-----------------|-----------------|
A|-7---------------|-----------------|-----------------|
E|-----------4-----|-----------------|-----------------|
   E E Q.    Q.      W                 W

Synth Solo

G|-----5-------4---|---2--------/4---|-----5-------4---|---2--------/4---|
D|-----------------|-----------------|-----------------|-----------------|
A|-3-------2-2-----|-0-----2---2-----|-3-------2-2-----|-0-----2---2-----|
E|-----------------|-----------------|-----------------|-----------------|
   Q   Q   E E Q     E.S E E E.S Q     Q   Q   E E Q     E.S E E E.S Q

G|-----5-------4---|---2--------/4---|---9-7-------------------------|
D|-----------------|-----------------|-------9-8-7-5-7-9-7-5-7-5-----|
A|-3-3-----2-2-----|-0-----2---2-----|---------------------------7-5-|
E|-----------------|-----------------|-------------------------------|
   E E Q   E E Q     E.S E E E S.Q     E S S S S S S S S S S S S S S

G|-----------------|
D|-----------------|
A|-7---------------|
E|-----------4-----|
   E E Q.    Q.

Breakdown

G|-----------------|-----------------|-----------------|-----------------|
D|-----------------|-----------------|-----------------|-----------------|
A|---------------3-|(3)--3-3-3-3-3-3-|---------------3-|(3)--4-4-5-5-6-6-|
E|-----0-----------|-----------------|-----0-----------|-----------------|
   Q   Q   Q.    E   Q   E E E E E E   Q   Q   Q.    E   Q   E E E E E E

Bridge

G|-------------5-7-|---5---------5---|---------------5-7-|---5---------5---|
D|-2---------------|-----------------|-0-2---------------|-----------------|
A|-----------------|-3-------3-------|-------------------|-3---3---3-------|
E|---0-----0-------|-----------------|-----0-----0-------|-----------------|
   E E Q   Q   S E.  E.S Q   Q   Q     S S E Q   Q   S E.  E.S E E Q   Q

G|---------------5-7-|---5---------5---|-------------------5-7-|-----------------|
D|-0-2---------------|-----------------|-0-2-------------------|-----------------|
A|-------------------|-3---3---3-3-----|-----------------------|-3-3-5-5-3-3-5-5-|
E|-----0-----0-0-----|-----------------|-------0-0-0---0-------|-----------------|
   S S E Q   E E S E.  E.S E E E E Q     S S E S S S S Q   S E.  E E E E E E E E


G|---------------5-7-|---5---------5---|-----------------------|---5-----------5---|
D|-0-2---------------|-----------------|-0-2---------------2---|-------------------|
A|-------------------|-3-------3-------|-----------------------|-3---3-3---3-3-----|
E|-----------0-------|-----------------|-------0-0-0---0-------|-------------------|
   S S E Q   Q   S E.  E.S Q E Q   Q     S S E S S S S Q   Q     E.S S S E E E Q
                                                                                         x4
G||------------------------|---5-----------5---|-----------------------|---5-----------5---||
D||o-0-2---------------2---|-------------------|-0-2---------------2---|------------------o||
A||o-----------------------|-3---3-3---3-3-----|-----------------------|-3---3-3---3-3----o||
E||----------x-0-0-0-0-----|-------------------|-------0-0-0---0-0-----|-------------------||
     S S E S S S S E E Q     E.S S S E E E Q     S S E S S S S E E Q     E.S S S E E E Q

G|-----------------------|---5-----------5---|-----------------------|-----------------|
D|-0-2---------------2---|-------------------|-0-2---------------2---|-----------------|
A|-----------------------|-3---3-3---3-3-----|-----------------------|-3-3-5-5-3-3-5-5-|
E|---------x-0-0-0-0-----|-------------------|-------0-0-0---0-0-----|-----------------|
   S S E S S S S E E Q     E.S S S E E E Q     S S E S S S S E E Q     E E E E E E E E

Instrumental

G|-----------------7-9-|---5---7---5---7-|-----------------7-9-|---5---7---5---7-|
D|-0-2-----------------|-----------------|-0-2-----------------|-----------------|
A|-------2-0-----------|-3---5---3---5---|-------2-0-----------|-3---5---3---5---|
E|-----------3-0-0-----|-----------------|-----------3-0-0-----|-----------------|
   S S E.S S S E E S E.  E E E E E E E E   S S E.S S S E E S E.  E E E E E E E E

G|-----------------7-9-|---5---7---5---7-|-----------------7-9-|---5---7---5---7-|
D|-0-2-----------------|-----------------|-0-2---4-2-----------|-----------------|
A|---------------------|-3---5---3---5---|-----------2---------|-3---5---3---5---|
E|-------x-0-0-0-0-----|-----------------|-------------0-0-----|-----------------|
   S S E.S S S E E S E.  E E E E E E E E   S S E.S S S E E S E.  E E E E E E E E
                                                                                  x6
G||------------------7-9-|---5---7---5---7-|-----------------7-9-|---5---7---5---7--||
D||o-0-2-----------------|-----------------|-0-2-----------------|-----------------o||
A||o---------------------|-3---5---3---5---|---------------------|-3---5---3---5---o||
E||--------x-0-0-0-0-----|-----------------|-------x-0-0-0-0-----|------------------||
     S S E.S S S E E S E.  E E E E E E E E   S S E.S S S E E S E.  E E E E E E E E

G|-----------------7-9-|---5---7---5---7-||
D|-0-2-----------------|-----------------||
A|---------------------|-3---5---3---5---||
E|-------x-0-0-0-0-----|-----------------||
   S S E.S S S E E S E.  E E E E E E E E

"Jelly Jam"

Part I

G||--------------------|-------------------|-------------------|--------------------||
D||o-0-2---------2\----|-0-2---------2\----|-0-2---------2\----|-0-2---------2\----o||
A||o-------------------|-------------------|-------------------|-------------------o||
E||----------0-0-----0-|---------0-0-----0-|---------0-0-----0-|---------0-0-----0--||
     S S Q   E E.S E E   S S Q   E E.S E E   S S Q   E E.S E E   S S Q   E E.S E E 

G|---------------9---|---------------9---|---------------9---|---------------9---|
D|-0-2---------------|-0-2---------------|-0-2---------------|-0-2---------------|
A|-------------------|-------------------|-------------------|-------------------|
E|---------0-0-------|---------0-0-------|---------0-0-------|---------0-0-------|
   S S Q   E E.S E E   S S Q   E E.S E E   S S Q   E E.S E E   S S Q   E E.S E E 

G|-------------------|-------------------|-------------------|-------------------|
D|-0-2---------2\----|-0-2---------2\----|-0-2---------2\----|-0-2---------2\----|
A|-------------------|-------------------|-------------------|-------------------|
E|---------0-0-----0-|---------0-0-----0-|---------0-0-----0-|---------0-0-----0-|
   S S Q   E E.S E E   S S Q   E E.S E E   S S Q   E E.S E E   S S Q   E E.S E E 

G|-------------------9-|-------------------9-|-------------------9-|-------------------9-|
D|-0-2-----------------|-0-2-----------------|-0-2-----------------|-0-2-----------------|
A|---------------------|---------------------|---------------------|---------------------|
E|-------0-0---0-------|-------0-0---0-------|-------0-0---0-------|-------0-0-0-0-0-----|
   S S E S S E Q   E E   S S E S S E Q   E E   S S E S S E Q   E E   S S E S S E E E E E

G|-------------------7-|-------------------7-|-------------------7-|---------------7---9-|
D|-0-2-----------------|-0-2-----------------|-0-2-----------------|-0-2-----------------|
A|---------------------|---------------------|---------------------|---------------------|
E|-------0-0-0-0-0-----|-------0-0-0-0-0-----|-------0-0-0-0-0-----|-------0-0-0---------|
   S S E S S E E E E E   S S E S S E E E E E   S S E S S E E E E E   S S E S S E S E.S E.

Part II

G|-----------------|-----------------|-----------------|-----------6-6---7-7-|
D|-2---------------|-2-----------2-0-|-2-----------2---|-2-------------------|
A|-----------------|-----------------|-----------------|---------4-----5-----|
E|-------0-0-------|-------0---0-----|-------0---0-----|-------0-------------|
   Q   E E H         Q   E Q   E E E   Q   E Q   E Q     Q   E E S S E S S E

G|-----------------|-----------------|-------------------|-----------------------|
D|-2-----------0-2-|-2-----------0-2-|-2-------------0-2-|-2---------0-2-2-0-2-2-|
A|-----------------|-----------------|-------------------|-----------------------|
E|-------0-0-------|-------0-0-------|-----0---0-0-------|-----0-0-0-------------|
   Q   E E Q E S S   Q   E E Q E S S   Q   E E E E E S S   Q   S S E S S E S S E

G|---------------7-9-|-----------------|-------------------|-----------------|
D|-2---------7-9-----|-2---------------|-2-----------------|-0-2-------------|
A|-------------------|-----------------|-------------------|-------------4-5-|
E|-------0-0---------|---------0-------|-----0-0-0-0-0-----|---------0-0-----|
   Q   E E Q S S S S   Q   Q   H         Q   S S E E E Q     S S E E.E.E E E

G|-----------------|-----------------|-----------------|-----------------------|
D|-2---------------|-2---------------|-2---------------|-0-2-------------0-2---|
A|-----------------|-----------------|-----------------|-----------------------|
E|-----0---0-------|-------0-0-------|-----0-0-0-0-0---|-------0-0---0-0-------|
   Q   Q E H         Q   S E.H         Q   S S E E E Q   S S E S S E E E S S E

Part III

G|-2-0---------------|-2-0---------------|-2-0-------------|-2-0-----------------|
D|-------2-----0-2---|-------0-2---------|-------------x---|-------2-------0-2---|
A|-------------------|-------------------|-----------------|-------------------2-|
E|---------0-0-----0-|-----------0-0-0-0-|-------x-0-0---0-|---------0-0-0-------|
   E E E E E E S S E   E E E S S E E E E   E E E E E E E E   E E E E S S E S S E

G|-2-0---------------|-2-0-----------------|-2-0-----------------|-2-0-------------|
D|-------2-----0-2---|-------2-------0-2---|-------2-------0-2---|-------2-2-------|
A|-----------------2-|---------------------|---------------------|-----------------|
E|---------0-0-------|---------0-0-0-----0-|---------0-0-0-----0-|-----------0-----|
   E E E E E E S S E   E E E E S S E S S E   E E E E S S E S S E   E E S S S H

Part IV

G|-9---9---------------|---------------------|-9---9-------------|-----------------|
D|---------------0-2---|-2-------------0-2---|-------------0-2---|-0-2---------0-2-|
A|---------------------|---------------------|-------------------|-----0-2---------|
E|---------0-0-0-----0-|-----0-0-0-0-0-----0-|-------0-0-0-----0-|---------0-------|
   E E E E S S E S S E   Q   S S E E E S S E   E E E.S E E S S E   S E.S E.Q   S E.

G|-9---9-----------|-------------------|-9---------------|-----------------|
D|-------------0-2-|-2-------------0-2-|-----2-------0-2-|-0-2---------0-2-|
A|-----------------|-------------------|-----------------|-----------------|
E|---------0-------|-----0-0---0-------|---------0-------|-----------------|
   E E E E Q   S E.  E E S S E Q   S E.  E E E E Q   S E.  S E.H       S E.

Part V

G||------------------|-----------------|-----------------|------------------||
D||o-2-----------0-2-|-2-----------0-2-|-2-----------0-2-|-2-----------0-2-o||
A||o-----------------|-----------------|-----------------|-----------------o||
E||-------0--0-------|------0--0-------|------0--0-------|------0--0--------||
     E E. E. Q   S E.  E E. E. Q   S E.  E E. E. Q   S E.  E E. E. Q   S E.

G|-----------------|-----------------|-----------------|-----------------|
D|-2-----------0-2-|-2-----------0-2-|-2-----------0-2-|-2-------0---2---|
A|-----------------|-----------------|-----------------|-----2-----------|
E|------0--0-------|------0--0-------|------0--0-------|-----------------|
   E E. E. Q   S E.  E E. E. Q   S E.  E E. E. Q   S E.  E E E E E E E E 

Part VI

G|---------------------|-------------------|-------------------|-----------------|
D|-2---2-2-0-2---2-2-0-|-2---2-2-2-----2---|-0-2-----2-2-5-2-0-|-0-2---------2---|
A|---------------------|-------------------|-------------------|-----------------|
E|---------------------|-----------0-0-----|-----0-0-----------|-----0-0-0-0---0-|
   Q   S S E E E S S E   Q   S S E E E Q     E.S S E.E E S S E   E.S S E.E E E E

G|---------------------|-------------------|---------------------|-----------------|
D|-0-2-----2-2-5-2-0-2-|-0-2-----------2---|-0-2-0-2-0-2-5-2-0-2-|-0-2-0-2-----0-2-|
A|---------------------|-------------------|---------------------|-----------------|
E|-----0-0-------------|-----0-0-0-0-0---0-|---------------------|---------0-0-----|
   E.S S E.E E S S S S   E.S E S S E E E E   E.S S E.E E S S S S   E.S S E.E E E.S

G|-------------------|-----------------|---------------------|-----------------|
D|-0-2-----2-2-5-2-0-|-0-2-0-2-----2\--|-0-2-0-2-0-2-5-2-0-2-|-0-2-0-2-----2-2-|
A|-------------------|-----------------|---------------------|-----------------|
E|-----0-0-----------|---------0-------|---------------------|---------0-0-----|
   E.S S E.E E S S E   E.S S E.Q   Q     E.S S E.E E S S S S   E.S S E.E E E E

G|-------------------|-----------------|-------------------|-----------------|
D|-0-2-----2-2-5-2-0-|-0-2-0-2-----2\--|-0-2-0-2-0-2-5-2-0-|-0-2-------------|
A|-------------------|-----------------|-------------------|-----------------|
E|-----0-0-----------|---------0-0-----|-------------------|-----0-0-0---0---|
   E.S S E.E E S S E   E.S S E.E E Q     E.S S E.E E S S E   E.S S E.Q   Q

G|-------------------|-----------------|-------------------|-----------------|
D|-0-2-----0-2-5-2-0-|-0-2-0-2-----2\--|-0-2-0-2-0-2-5-2-0-|-0-2---------2---|
A|-------------------|-----------------|-------------------|-----------------|
E|-----0-0-----------|---------0-------|-------------------|-----0-0-0-------|
   E.S S E.E E S S E   E.S S E.Q   Q     E.S S E.E E S S E   E.S S E.Q   Q

G|-------------------|-------------------||
D|-0-2-----------2\--|-0-2-----------2\--||
A|-------------------|-------------------||
E|-----0-0-0-0-------|-----0-0-0-0-------||
   S E.S S E Q   Q     S E.S S E Q   Q


Key to rhythm notations:

W - Whole Note/Semi-Brieve
H - Half Note/Minim
Q - Quarter Note/Crotchet       Q. - Dotted Quarter Note
E - Eight Note/Quaver           E. - Dotted Eight Note
S - Sixteenth Note/Semi-Quaver  S. - Dotted Sixteenth Note

            
            
Suggest correction
Creating personal tab
Creating personal tab
You can edit any tab online and save it as your Personal.

You can edit, replace or remove any tab part or add personal notes – all changes will be seen only by you.

Personal tabs can be accessed anytime from any device, even offline.
Learn more »
Give kudos to tab author, rate the tab!
1 2 3 4 5
comments
print report bad tab
guest
You may want to rate the tab now too:
select rating
Wanna post a correction for this tab? Suggest correction