Oops, an error
Loading. Please wait.

Tu Y Yo tab

version 2
version 2

Whole song

107 views 1 this week
no commentswrite comment
1 2 3 4 5
3 more votes to show rating
add to favorites
×
Save as Personal and add changes to this tab that will be seen only by you. Learn more ›
×
You can save this tab as Personal to edit and correct it or add notes. All changes will be seen only by you. Learn more »
launch autoscroll
font size
0
reset
how to read this tab
guitar tuner
edit
Autoscroll
slow
fast
+/-
esc
set tempo
stop
Esta canción es muy bonita, dedicada a todas las mujeres, que sin ellas
de verdad nuestra vida no tendría sentido, en especial para W.R.S. que
desde el día que te vi, tus ojos me hipnotizaron y quede enamorado :D
espero que Dios me de la oportunidad de estar a tu lado. O:)

Utilizar capo en el 1er traste. :p

 G             Em           C                      D
|--------------11--------------------|---------------------------------|
|--11/13-13-11----9---9-8--11/13-----|-----9--11-11/13/11--9-11/13--11-|
|---------------------------------10-|--10-----------------------------|
|------------------------------------|---------------------------------|
|------------------------------------|---------------------------------|
|------------------------------------|---------------------------------|


 G             Em           C                    D
|--------------11--------------------|---------------------------------|
|--11/13-13-11----9---9-8--11/13-----|-----9--11-11/13/11--9-9s8-8s9---|
|---------------------------------10-|--10-----------------------------|
|------------------------------------|---------------------------------|
|------------------------------------|---------------------------------|
|------------------------------------|---------------------------------|

G                                    Em
Yo se que tus amistades hablan mal de mi
                        C
Dicen que soy malo para ti
                          Em
Lo que sucede es entre tu y yo
                  D                      Em
Es un problema de dos esto es nuestra relacion
G                                               Em
They tell you that I might be going around cheating
                                          C
Dont believe them girl they're just hating
                             Em
Te meten cosas en la mente no no
                    D
no le pongas atención

C    D                  Em
Tu y yo enamorados corazón
                 G
te garantizo mi amor
C    D
Tu y yo (solo tu y yo solos)
Em
que no interfiera nadie
                   C
podrán alejarme noo

Riff: en el min 1:07 lo hacen rápido. :D

|-16-13--------------------|
|-------16-13-------11/13--|
|-------------15-13--------|
|--------------------------|
|--------------------------|


G     D         Em           C
Tu y yo los dos soñando de amor
D
Tu sabes que eres para mi
G     D          Em            C
Tu y yo los dos no tendremos dolor
D
Tu sabes que soy para ti
C                 D                Em           G
Y que lo sepa el mundo que nuestro amor debe vivir
C                D                 Em                 G
Y aunque se opongan sabes que por ti soy capaz de morir
C
Tu eres para mi
D
Yo soy para ti
Em                                     G
Te entrego mi vida y mi amor hasta el fin (x2)

...y vuelven a repetir...

Espero que les haya gustado, :D :3.

By Dante AlaMo :D cualquier duda escríbeme a dante_almo@ con mucho
gusto te ayudaré en lo que pueda. :D

            
            
Suggest correction
Creating personal tab
Creating personal tab
You can edit any tab online and save it as your Personal.

You can edit, replace or remove any tab part or add personal notes – all changes will be seen only by you.

Personal tabs can be accessed anytime from any device, even offline.
Learn more »
Give kudos to tab author, rate the tab!
1 2 3 4 5
comments
print report bad tab
guest
Wanna post a correction for this tab? Suggest correction