Oops, an error
Loading. Please wait.

I Need You Tonight tab

10,774 views 1 this week
2 commentsread comments
1 2 3 4 5
x 6
add to favorites
×
Save as Personal and add changes to this tab that will be seen only by you. Learn more ›
×
You can save this tab as Personal to edit and correct it or add notes. All changes will be seen only by you. Learn more »
launch autoscroll
font size
0
reset
how to read this tab
guitar tuner
edit
Autoscroll
slow
fast
+/-
esc
set tempo
stop
Author
Difficulty
http://www.myspace.com/professorgreen

hey this is my version of need you tonight

this song is covered from inxs but i think this version
is awesome 

any comments let us kno and plz rate

the whole song is just 2 riffs

the first is
|--8--8--8---11111111-1010-8---|
|--8--8--8---11111111-1010-8---|
|--9--9--9---------------------|
|--10-10-10--------------------|
|------------------------------|
|------------------------------|

and the second riff is
|---------------------------|
|---------------------------|
|--55-7-8-7-5-7-8-7---------|
|---------------------------|
|---------------------------|
|---------------------------|


have fun and hope it helps :)

            
            
Suggest correction
Creating personal tab
Creating personal tab
You can edit any tab online and save it as your Personal.

You can edit, replace or remove any tab part or add personal notes – all changes will be seen only by you.

Personal tabs can be accessed anytime from any device, even offline.
Learn more »
comments
print report bad tab
2 comments total.
-2 reply
The-Unf0rgiven 10 Aug 03, 2010 07:42 AM

this suuuuucks ):

0 reply
Ainthero 16 Aug 23, 2010 12:14 PM

this is a great tune, played on 2 guitars you can cover up almost the whole song, perfect for an acoustic performance,
I watched his acoustic version on youtube and there the first riff was played with just one slight difference :
|--8--8--8---1111xx-1010-8---|
|--8--8--8---1111xx-1010-8---|
|--9--9--9-------------------|
|--10-10-10------------------|
|----------------------------|
|----------------------------|

guest
You may want to rate the tab now too:
select rating
Wanna post a correction for this tab? Suggest correction