Oops, an error
Loading. Please wait.

Wrought On This Holidays Eve bass

193 views 3 this week
1 commentread comment
1 2 3 4 5
3 more votes to show rating
add to favorites
×
Save as Personal and add changes to this tab that will be seen only by you. Learn more ›
×
You can save this tab as Personal to edit and correct it or add notes. All changes will be seen only by you. Learn more »
launch autoscroll
font size
0
reset
guitar tuner
edit
Autoscroll
slow
fast
+/-
esc
set tempo
stop
This was transposed on a 5-string, but since you do not use the B string you are able to 
it on a 4-string...enjoy. this is my first tab, with any questions or compliments or 
email me "bassist1092@gmail.com"

Intro
-----------------------------------------------|
-----------------------------------------------|
-----------------------------------------------|     X2
--77-77-77-77-777-7-66-666-666-66-666-6--------|
-----------------------------------------------|

Verse
----------------------------------------------------|
-- -------------------------------------4545454545--|
----------99-9---1010-10---55-5---44-4--------------|    X2
--77-7----------------------------------------------|
----------------------------------------------------|

----------------------------------------|
----------------------------------------|
--22-2---44-4---55-5---99-9---89898989--|   X2
----------------------------------------|
----------------------------------------|

Chorus
-----------------------------------------------------------------|
-----------------------------------------5-4---------------------|
----------------------------2---4---5---------5------------------|
-7---10---6---4----------------------------------7---10---6---4--|
-----------------------------------------------------------------|

Verse
----------------------------------------------------|
-- -------------------------------------4545454545--|
----------99-9---1010-10---55-5---44-4--------------|    X2
--77-7----------------------------------------------|
----------------------------------------------------|

----------------------------------------|
----------------------------------------|
--22-2---44-4---55-5---99-9---89898989--|   X2
----------------------------------------|
----------------------------------------|

Chorus
-----------------------------------------------------------------|
-----------------------------------------5-4---------------------|
----------------------------2---4---5---------5------------------|    x4
-7---10---6---4----------------------------------7---10---6---4--|
-----------------------------------------------------------------|

Outro
-----------------------------------------|
-----------------------------------------|
-----------------------------------------|     X2
--77-77-77-77-777-7-66-666-666-66-666-6--|
-----------------------------------------|

            
            
Suggest correction
Creating personal tab
Creating personal tab
You can edit any tab online and save it as your Personal.

You can edit, replace or remove any tab part or add personal notes – all changes will be seen only by you.

Personal tabs can be accessed anytime from any device, even offline.
Learn more »
Give kudos to tab author, rate the tab!
1 2 3 4 5
comments
print report bad tab
1 comment total.
0 reply
bentheredfan1 151 Jan 07, 2017 02:16 PM

What tuning is this in?

guest
Wanna post a correction for this tab? Suggest correction