Oops, an error
Loading. Please wait.

Haillie Does Hebron tab

1,008 views 1 this week
1 commentread comment
1 2 3 4 5
1 last vote to show rating
add to favorites
×
Save as Personal and add changes to this tab that will be seen only by you. Learn more ›
×
You can save this tab as Personal to edit and correct it or add notes. All changes will be seen only by you. Learn more »
launch autoscroll
font size
0
reset
how to read this tab
guitar tuner
edit
Autoscroll
slow
fast
+/-
esc
set tempo
stop
Author
Difficulty
this is a rad song by propagandhi
Tabbed by:soad sk8er
Email:sk8er_skateboadr@hotmail.com

E-|---------------------------------|---------------------------------|
B-|---------------------------------|---------------------------------|
G-|---------------------------------|---------------------------------|
D-|/7~~~~---------------------------|/7---6---5---4-------2~~~--------|
A-|---------------------------------|---------------------------------|
E-|---------------------------------|---------------------------------|


   Riff B                                                   End Riff B
E-|---------------------------------|---------------------------------|
B-|---------------------------------|---------------------------------|
G-|---------------------------------|---------------------------------|
D-|---------------------------------|---------------------------------|
A-|/3--2---1---0--------------------|---------------------------------|
E-|---------------------------------|/4---3---1-------------x-x-x---x-|


   Riff C                                                   End Riff C
E-|-5-------------------------------|(5)------------------------------|
B-|-5-------------------------------|(5)------------------------------|
G-|-5-------------------------------|(5)------------------------------|
D-|-7-------------------------------|(7)------------------------------|
A-|-0-------------------------------|(0)------------------------------|
E-|---------------------------------|---------------------------------|


   Riff D                                                   End Riff D
E-|---------------------------------|--------------x-\-\-\--x-/-/-/---|
B-|---------------------------------|--------------x-\-\-\--x-/-/-/---|
G-|---------------------------------|---(Dnwrds Pk Sl./Upwrds- Pk Sl.)|
D-|---------------------------------|---------------------------------|
A-|---------------------------------|---------------------------------|
E-|---------------------------------|---------------------------------|

   Riff E                                                   End Riff E
E-|-5---x-x-5-------3---x-x-3-------|-1---x-x-1-------3---x-x-3-------|
B-|-5---x-x-5-------3---x-x-3-------|-1---x-x-1-------3---x-x-3-------|
G-|-5---x-x-5-------4---x-x-4-------|-2---x-x-2-------4---x-x-4-------|
D-|---------------------------------|---------------------------------|
A-|---------------------------------|---------------------------------|
E-|---------------------------------|---------------------------------|


   Riff F                                                   End Riff F
E-|---------------------------------|---------------------------------|
B-|-------------1--(1)--------------|---------------------------------|
G-|---------2-----------2-----------|---------0--(0)----------0--(0)--|
D-|-----2-------------------2-------|-----0---------------0-----------|
A-|-0---------------------------0---|-3---------------2---------------|
E-|---------------------------------|---------------------------------|


   Riff G                                                   End Riff G
E-|---------------------------------|---------------------------------|
B-|-------------1--(1)--------------|---------------------------------|
G-|---------2-----------2-----------|---------0-----------------------|
D-|-----2-------------------2-------|-----0-------0-----------0-------|
A-|-0---------------------------0---|-3-------------------2-------2---|
E-|---------------------------------|-----------------3---------------|


   Riff H                                                   End Riff H
E-|---------------------------------|---------------------------------|
B-|---------------------------------|---------------------------------|
G-|-2--------------(2)--------------|---------------------4---5-------|
D-|-2--------------(2)--------------|-5-------------------4---5-------|
A-|-0--------------(0)--------------|-5-------------------2---3-------|
E-|---------------------------------|-3-------------------------------|


   Riff I                                                   End Riff I
E-|---------------------------------|---------------------------------|
B-|---------------------------------|---------------------------------|
G-|---------------------------------|---------------------5---4-------|
D-|-3--------------(3)--------------|-5-------------------5---4-------|
A-|-3--------------(3)--------------|-5-------------------3---2-------|
E-|-1--------------(1)--------------|-3-------------------------------|


   Riff J                                                   End Riff J
E-|---------------------------------|---------------------------------|
B-|---------------------------------|---------------------------------|
G-|-2--------------(2)--------------|(2)------------------------------|
D-|---------------------------------|---------------------------------|
A-|---------------------------------|---------------------------------|
E-|---------------------------------|---------------------------------|


   Riff K                                                   End Riff K
E-|---------------------------------|---------------------------------|
B-|---------------------------------|---------------------------------|
G-|(2)-------------(2)--------------|(2)------------------------------|
D-|---------------------------------|---------------------------------|
A-|---------------------------------|---------------------------------|
E-|---------------------------------|---------------------------------|


   Riff L                                                   End Riff L
E-|---------------------------------|-----------------------------------|
B-|-----------------1p0-----1p0-----|-----------------1p0-----1p0-------|
G-|---------------------------------|-----------------------------------|
D-|-2-2-2---2-2-2-------------------|-2-2-2---2-2-2---------------------|
A-|-0-0-0---0-0-0-------0-------0---|-0-0-0---0-0-0-------0-------0-----|
E-|---------------------------------|-----------------------------------|
    pm-----------|      pm      pm    pm-----------|      pm------------|      pm


   Riff M                                                   End Riff M
E-|---------------------------------|-----------------------------------|
B-|-----------------0h1-----0h1-----|-----------------0h1-----0h1-------|
G-|---------------------2-------2---|---------------------2-------2-----|
D-|-2-2-2---2-2-2-------------------|-2-2-2---2-2-2---------------------|
A-|-0-0-0---0-0-0-------------------|-0-0-0---0-0-0---------------------|
E-|---------------------------------|-----------------------------------|
    pm-----------|                     pm-------------------------------|


   Riff N                                                   End Riff N
E-|---------------------------------|---------------------------------|
B-|-0h1-----0h1-----0h1-----0h1-----|-0h1-----0h1-----0h1-----0h1-----|
G-|-----2-------2-------2-------2---|-----2-------2-------2-------2---|
D-|---------------------------------|---------------------------------|
A-|---------------------------------|---------------------------------|
E-|---------------------------------|---------------------------------|

   Riff O                 End Riff O
E-|---------------------------------|
B-|-1-------------------------------|
G-|-2-------------------------------|
D-|-2-------------------------------|
A-|---------------------------------|
E-|---------------------------------|

            
            
Suggest correction
Creating personal tab
Creating personal tab
You can edit any tab online and save it as your Personal.

You can edit, replace or remove any tab part or add personal notes – all changes will be seen only by you.

Personal tabs can be accessed anytime from any device, even offline.
Learn more »
Give kudos to tab author, rate the tab!
1 2 3 4 5
comments
print report bad tab
1 comment total.
0 reply
dugb 10 Oct 25, 2008 12:30 PM

The reggae chords' 1st string notes ascend with each change, i.e. (E-B-G-D)

5
5
5
(7)

7
8
7
(9)

8
6
5
(7)

10
8
7
(9)

Also, the B power chord should be played with a sharpened 5th, i.e.

G: 4
D: 5
A: 2

The outro is more like:

B: -------------------------||---------------0-----0-----||
G: -------------5-5---5-5---||x4---------------5-----5---||x2
D: -7-7-7-7-7-7-----7-----7-||---7-7-7-7-7-7-----7-----7-||

B: -0-----0-----0-----0-----------------
G: ---5-----5-----5-----5---5-5-5-5---4-
D: -----7-----7-----7-----7-5-5-5-5---5-
A: -------------------------3-3-3-3---2-

guest
You may want to rate the tab now too:
select rating
Wanna post a correction for this tab? Suggest correction