Oops, an error
Loading. Please wait.

Nation States tab

version 2
version 2

Whole song

3,657 views 15 this week
no commentswrite comment
1 2 3 4 5
x 3
add to favorites
×
Save as Personal and add changes to this tab that will be seen only by you. Learn more ›
×
You can save this tab as Personal to edit and correct it or add notes. All changes will be seen only by you. Learn more »
launch autoscroll
font size
0
reset
how to read this tab
guitar tuner
edit
Autoscroll
slow
fast
+/-
esc
set tempo
stop
Author
Difficulty
*****************
***PROPAGANDHI***
*****************

"Nation States"
or
"and we thought Nation-States were a Bad Idea"


All previous versions of this tab that I could find were inaccurate
to a certain degree. I have built on the tab that was the closest to
being accurate and have made some revisions.
 
******************
Revision by APEDOG
apedogproductions@gmail.com
******************



INTRO TAB

E------------------------------------------------------------------------|
B------------------------------------------------------------------------|
G---3-3-3---------------------------------------------------7/8-8--7/8-8-|
D---3-3-3-------0-----3-3-3-3-----4/5-5--4/5-5--4/5-5-5\4---7/8-8--7/8-8-|
A---1-1-1-0-1-3---1---3-3-3-3-----4/5-5--4/5-5--4/5-5-5\4---5/6-6--5/6-6-|
E---------------------1-1-1-1-----2/3-3--2/3-3--2/3-3-3\2----------------|


E------------------------------------------------------------------------|
B------------------------------------------------------------------------|
G---3-3---------------------------------------8-8-8-7-5------------------|
D---3-3--------0-----3--3--4--4----5-5-5-4-3--8-8-8-7-5------------------|
A---1-1--0-1-3---1---3--3--4--4----5-5-5-4-3--6-6-6-5-3------------------|
E--------------------1--1--2--2----3-3-3-2-1-----------------------------|


E------------------------------------------------------------------------|
B------------------------------------------------------------------------|
G---3----------------------3--------------------------7/8-8--7/8-8-------|
D---3--------0------3--3---2---4/5-5-4/5-5-4/5-5-5\4--7/8-8--7/8-8-------|
A---1--0-1-3----1---3--3---3---4/5-5-4/5-5-4/5-5-5\4--5/6-6--5/6-6-------|
E-------------------1--1-------2/3-3-2/3-3-2/3-3-3\2---------------------|


E----------------------------------------------------------|
B----------------------------------------------------------|
G---3-3--3---------------------------------------8-8-8-7-5-|
D---3-3--3-------0------3--3--4--4----5-5-5-4-3--8-8-8-7-5-|
A---1-1--1 0-1-3----1---3--3--4--4----5-5-5-4-3--6-6-6-5-3-|
E-----------------------1--1--2--2----3-3-3-2-1------------|


VERSE CHORDS (Listen to song for strumming)

    "Publicly subsidized, privately profitable..."
E----------------------|
B----------------------|
G---3-----------3---3--|
D---3---3---5---2---3--|
A---1---3---5---3---1--|
E-------1---3----------| 

VERSE CHORDS PART 2

                    "and I'm just a kid..."
E----------------------------------------------------|
B----------------------------------------------------|
G---3----------------8-8-8-8-7-----0-----------------|
D---3---------0------8-8-8-8-7----0---x--3--xxxxxxxx-|
A---1---0-1-3---1----6-6-6-6-5---2----x--3--xxxxxxxx-|
E-------------------------------3-----x--1--xxxxxxxx-|

E-----------------------------------------------------|
B-----------------------------------------------------|
G---3---------------8-8-8-8-7---3--3--3--3----3----8\-|
D---3---------0-----8-8-8-8-7---3--3--3--3----2----8\-|
A---1---0-1-3---1---6-6-6-6-5---1--1--1--1----3----6\-|
E-----------------------------------------------------|

E----------------------------------------------------|
B----------------------------------------------------|
G---3----------------8-8-8-8-7-----0-----------------|
D---3---------0------8-8-8-8-7----0---x--3--xxxxxxxx-|
A---1---0-1-3---1----6-6-6-6-5---2----x--3--xxxxxxxx-|
E-------------------------------3-----x--1--xxxxxxxx-|

E---------------------------------------------------------|
B---------------------------------------------------------|
G---3----------------8-8-8-8-7---3--3--3--3----3----8--10-|
D---3---------0------8-8-8-8-7---3--3--3--3----2----8--10-|
A---1---0-1-3---1----6-6-6-6-5---1--1--1--1----3----6--8--|
E---------------------------------------------------------|


BRIDGE CHORDS

   "Born, hired, disposed..."
E---------------------------------|
B---------------------------------|
G---3---5---8---------------------|        
D---3---5---8---3---4-------------|
A---1---3---6---3---4-------------|
E---------------1---2-------------|


You can fill in the blanks with the chords above :)


LYRICS:

"Publicly subsidized! Privately profitable!"
That's the anthem of the upper-tier (the puppeteer untouchable).
We focus a moment, nod in approval and bury our head back in the bar-codes
of these neo-colonials while our former nemesis
(ah, the romance!): the nation-state, now plays fund-raiser for a new brand of power-concentrate.
Try again, but now we're confused- what is "class-war"?
Is this class war? Yes, this is class war.
And I'm just a kid- I can't believe that I gotta worry about this kind of shit!
What a stupid world! Yeah, this is just beautiful... absolutely no regard for principle.
What a stupid world. (We're): 1) born 2) hired 3) disposed!
Where that job lands,
everybody knows and you can tell by the smile on the CEO's
that the environmental restraints are about to go.
You can bet that laws will be set to ensure the benefit of unrestricted labor-laws
(all kept in place by displaced government death squads).
They own us. They produce us. They consume us.
Can you fucking believe this? What a stupid world.
Fuck this bullshit display of class-loyalties.
The media and "our" leaders wrap it all up in a flag- their fucking shit-rag. hooray!



Thanks to all that have contributed so far.

-APEDOG

            
            
Suggest correction
Creating personal tab
Creating personal tab
You can edit any tab online and save it as your Personal.

You can edit, replace or remove any tab part or add personal notes – all changes will be seen only by you.

Personal tabs can be accessed anytime from any device, even offline.
Learn more »
Give kudos to tab author, rate the tab!
1 2 3 4 5
comments
print report bad tab
guest
You may want to rate the tab now too:
select rating
Wanna post a correction for this tab? Suggest correction