Oops, an error
Loading. Please wait.

Supporting Caste tab

version 1
version 1

Whole song

7,410 views 3 this week
8 commentsread comments
1 2 3 4 5
1 last vote to show rating
add to favorites
×
Save as Personal and add changes to this tab that will be seen only by you. Learn more ›
×
You can save this tab as Personal to edit and correct it or add notes. All changes will be seen only by you. Learn more »
launch autoscroll
font size
0
reset
how to read this tab
guitar tuner
edit
Autoscroll
slow
fast
+/-
esc
set tempo
stop
Author
-------------------------------------------------------------------------------
                             Supporting Caste - Propagandhi
-------------------------------------------------------------------------------
Tabbed by: Francis425
Email:metal_is_crap@hotmail.com

Tuning: Eb Ab Db Gb Bb eB


Intro

e|-0-0-0-0------------------------1-3-1-3---0--0---------------------1-3-1-3--|
B|-3-3-3-3-----5--5------6--6-----1-1-1-1---3--3-----5--5------------1-1-1-1--|
G|-2-2-2-2-----5--5------5--5---------------2--2-----5--5-----4-4-------------|
D|-0-0-0-0-----2--2------3--3---------------0--0-----2--2-----5-5-------------|
A|------------------------------------------------------------2-2-------------|
E|---------0-0-------0-0------0-0----------------0-0------0-0-----0-0---------|
PM         * *       * *      * *                * *      * *     * *


e|-0--0------------------------1-3-1-3---0--0---------------------1-3-1-3--|
B|-3--3-----5--5------6--6-----1-1-1-1---3--3-----5--5------------1-1-1-1--|
G|-2--2-----5--5------5--5---------------2--2-----5--5-----4-4-------------|
D|-0--0-----2--2------3--3---------------0--0-----2--2-----5-5-------------|
A|---------------------------------------------------------2-2-------------|
E|------0-0-------0-0------0-0----------------0-0------0-0-----0-0---------|
PM      * *       * *      * *                * *      * *     * *


e|-------------------------|
B|-------------------------|
G|--4--4--4----5--5--------|
D|--5--5--5----2--2----7~--|
A|--2--2--2----3--3----5~--|
E|----------0----------3~--|
PM          *

Verse I (Play twice)

"When the credits finally..."
eb|-------------------------------|-------------------------------|
bb|-------------------------------|-------------------------------|
Gb|-5-7-7-------------------------|-5-7-7-------------------------|
Db|-5-7-7-------------------------|-5-7-7-------------------------|
Ab|-3-5-5--(5)(5)(5)-10-10--10-12-|-3-5-5--(5)(5)(5)-10-10--10-8--|
Eb|-------------------------------|-------------------------------|
(Thanks to ohp-kyle)


Verse II (Play twice)

e|---------------1-1-1-1-1-1-1-1---------------------1-1-1-1-1-1-1-1--|
B|-3~------------3-3-3-3-3-3-3-3---3-3-3-3-3-3-3-3---3-3-3-3-3-3-3-3--|
G|-3~------------2-2-2-2-2-2-2-2---3-3-3-3-3-3-3-3---2-2-2-2-2-2-2-2--|
D|-3~------------0-0-0-0-0-0-0-0---3-3-3-3-3-3-3-3---0-0-0-0-0-0-0-0--|
A|-1~------------------------------1-1-1-1-1-1-1-1--------------------|
E|--------------------------------------------------------------------|


e|--------------------1-1-1-1-3-3-1-0--------------------------------------|
B|-3-3-3-3-3-3-3-3-3--3-3-3-3-3-3-3-3---1-1-1-1-1-1-1-1---3-3-3-3-3-3-3-3--|
G|-3-3-3-3-3-3-3-3-3--2-2-2-2-2-2-2-2---0-0-0-0-0-0-0-0---3-3-3-3-3-3-3-3--|
D|-3-3-3-3-3-3-3-3-3--0-0-0-0-0-0-0-0---2-2-2-2-2-2-2-2---3-3-3-3-3-3-3-3--|
A|-1-1-1-1-1-1-1-1-1--------------------3-3-3-3-3-3-3-3---1-1-1-1-1-1-1-1--|
E|-------------------------------------------------------------------------|


Breakdown I

e|-----------------------------------|
B|------------------------15-15-15\--|
G|--7--7---7--9-10\----7--14-14-14\--|
D|--7--7---7-10-10\----7--12-12-12\--|
A|--5--5---5-----------5-------------|
E|-----------------------------------|


Repeat Verse I


Pre-Breakdown

e|------------------1~-----------------------------1~------------|
B|--3~------1~------3~--------1~---3~------1~------3~--------1~--|
G|--3~------0~------2~--------0~---3~------0~------2~--------0~--|
D|--3~------2~------0~--------2~---3~------2~------0~--------2~--|
A|--1~------3~----------------3~---1~------3~----------------3~--|
E|---------------------------------------------------------------|


e|------------------1~--------------------------------|
B|--3~------1~------3~----5---5---1~-------3~------3--|
G|--3~------0~------2~----5---4---0~-------3~------3--|
D|--3~------2~------0~----2---3---2~-------3~------3--|
A|--1~------3~--------------------3~-------1~------1--|
E|----------------------------------------------------|


Breakdown II (Play twice)

e|----------------------------------------------------------------------|
B|----------------------------------------------------------------------|
G|--7-7------------9-10\---7-7------------9-10\--7-7-------------9-10\--|
D|--7-7-----------10-10\---7-7-----------10-10\--7-7------------10-10\--|
A|--5-5(5)(5)(5)-----------5-5(5)(5)(5)----------5-5(5)(5)(5)-----------|
E|----------------------------------------------------------------------|


e|-----------------------------------------------------------|
B|-----------------------------------------------------------|
G|--7-7------------------------------------------------------|
D|--7-7------------------------/8-8-8-8--7------/8-8-8-8--7--|
A|--5-5(5)(5)(5)---------12----/8-8-8-8--6------/8-8-8-8--6--|
E|----------------/13-15-------/6-6-6-6--5------/6-6-6-6--5--|


Pre-Bridge

e|---------------------------------------------------------------|
B|---------------------------------------------------------------|
G|--/10-10-10-10---9------/10-10-10-10---9-----/10-10-10-10---9--|
D|--/10-10-10-10--10------/10-10-10-10--10-----/10-10-10-10--10--|
A|--/8---8--8--8---7------/8---8--8--8---7-----/8---8--8--8---7--|
E|---------------------------------------------------------------|


e|-------------------------------------------------------|
B|-------------------------------------------------------|
G|--/10-10-10-10--10-------------------------------------|
D|--/10-10-10-10--10-------/8-8-8-8--7------/8-8-8-8--7--|
A|--/8---8--8--8---7-------/8-8-8-8--6------/8-8-8-8--6--|
E|-------------------------/6-6-6-6--5------/6-6-6-6--5--|


Bridge

e|--1~--------------------------------------------------1~-------------------|
B|--3~----------------1~----------------3~--------------3~----------------1~-|
G|--2~-------------2--0~---0--0---------3~--------------2~-------------2--0~-|
D|--0~---0--0--/3-----2~---------2------3~---3--3h2-----0~---0--0--3------2~-|
A|--------------------3~-------------3--1~-----------3--------------------3~-|
E|---------------------------------------------------------------------------|


e|---------------------------------1~---------------------------------------|
B|---------------3~----------------3~----------------1~----------/3--1--3~--|
G|--0--0---------3~----------------2~-------------2--0~------/2---------3~--|
D|--------/2-----3~---3—3h2--------0~---0--0--/3-----2~---0-------------3~--|
A|------------3--1~----------3-----------------------3~---------------------|
E|------------------------------0-------------------------------------------|


e|------0--------1~-------------------------------------------|
B|--/6-----1-----3~---------2--1~--------------------3~---1~--|
G|------------0--2~------3-----0~-------1/2--2p0-----3~---2~--|
D|---------------0~---0--------2~---/3------------0--3~---2~--|
A|-----------------------------3~--------------------1~---0~--|
E|------------------------------------------------------------|


Solo

“...you may as well dance”
e|---------------------------------------------------------------------|
B|---------------------------------------------------------------------|
G|-----------------------3-2-------------------------------------------|
D|---------------2---3~------5-3------------------2---2-3~--33-2-------|
A|---0----8/---3---3--------------------0---8\------3------------5-3---|
E|-0---0------------------------------0---0----------------------------|
PM * * *        * * *                  * * *                           


Outro I (Play four times)

e|------------------------------5---------------|
B|---------------6-5---5--5~----------3~----5~--|
G|--7-7-5-7~-----------5--5~--/7-7~---3~----5~--|
D|--7-7-5-7~---/7-7----5--5~----------3~----5~--|
A|--5-5-3-5~-----------3--3~----------1~----3~--|
E|----------------------------------------------|



Outro II(Play twice)

e|----------------------------------------------------------------------------|
B|----------------------------------------------------------------------------|
G|--7-7-5-7---------------------------------7-7-5-7---------------------------|
D|--7-7-5-7---7--7--7---7--7--7---5--3--3---7-7-5-7--7--7--7---7--7--7---7-7-7|
A|--5-5-3-5---5--5--5---5--5--5---5--3--3---5-5-3-5--5--5--5---5--5--5---7-7-7|
E|------------5--5--5---3--3--3---3--3--3------------5--5--5---3--3--3---5-5-5|
 

Repeat Intro



| /  slide up
| \  slide down
| h  hammer-on
| p  pull-off
| ~  vibrato
| +  harmonic
| x  Mute note
===============================================================================

            
            
Suggest correction
Creating personal tab
Creating personal tab
You can edit any tab online and save it as your Personal.

You can edit, replace or remove any tab part or add personal notes – all changes will be seen only by you.

Personal tabs can be accessed anytime from any device, even offline.
Learn more »
Give kudos to tab author, rate the tab!
1 2 3 4 5
comments
print report bad tab
8 comments total. Showing first comments.
0 reply
ohp-kyle 562 Mar 27, 2009 04:48 PM

Nice work!

During that first part of the verse, where you play B5 then C#5, it sounds like Chris or Beave is doing something like

eb|-------------------------------|-------------------------------|
bb|-------------------------------|-------------------------------|
Gb|-5-7-7-------------------------|-5-7-7-------------------------|
Db|-5-7-7-------------------------|-5-7-7-------------------------|
Ab|-3-5-5--(5)(5)(5)-10-10--10-12-|-3-5-5--(5)(5)(5)-10-10--10-8--|
Eb|-------------------------------|-------------------------------|

...I don't know for certain, though. What do you think?

0 reply
Francis425 55 Mar 28, 2009 03:40 AM

Ah thankyou. I thought there something was going on there.

0 reply
Adam_Harrison9 171 May 02, 2009 11:09 AM

That is not the verse, it's palyed mainly all chords and they definitley don't sound right.

guest
You may want to rate the tab now too:
select rating
Wanna post a correction for this tab? Suggest correction