Oops, an error
Loading. Please wait.

Unfuck The World tab

3,637 views 69 this week
4 commentsread comments
1 2 3 4 5
x 4
add to favorites
×
Save as Personal and add changes to this tab that will be seen only by you. Learn more ›
×
You can save this tab as Personal to edit and correct it or add notes. All changes will be seen only by you. Learn more »
launch autoscroll
font size
0
reset
how to read this tab
guitar tuner
edit
Autoscroll
slow
fast
+/-
esc
set tempo
stop
About this tab version
This tab was completed by ear and is the first tab i can find on the internet for this specific song. Was this info helpful? Yes No
Here are the guitar tabs for the Prophets of Rage latest song 'Unfuck The World' !
Tuning is Drop D
For the verse riff Tom Morello plays it differently than me, by tapping the notes with his right hand 
on the D string and with a very heavy delay setting to create a slapjack effect.
This is the whole song without the solo 
Other than that I think my rendition is pretty accurate!

[Intro]
E|---------------------------------------------------------------|
B|---------------------------------------------------------------|
G|---------------------------------------------------------------|
D|-1--1--1---1-1---1--1--1---1-1---1--1--1---1-1---1--1--1---1-1-|
A|-1--1--1---1-1---1--1--1---1-1---1--1--1---1-1---1--1--1---1-1-|
D|-1--1--1---1-1---1--1--1---1-1---1--1--1---1-1---1--1--1---1-1-|

[Clean Riff]
E|---1------------------1------------------1------------------0---------------------|
B|-----3------------------3------------------3------------------3-------------------|
G|-------0-0h1p0---0--------0-0h1p0---0--------0-0h1p0---0--------0-0h1p0---0-------|
D|-0-------------3---0--------------3---0--------------3------------------3---0-----| x4
A|---------------------------------------------------------3------------------------|
D|----------------------------------------------------------------------------------|

[Chorus]
E|------------------------------------------------------------------------------------|
B|------------------------------------------------------------------------------------|
G|------------------------------------------------------------------------------------|
D|------------------------------------------------------------------------------------| x2
A|--------5---------3-----------5---------3--------5---------3--------6-----6-----6---|
D|-0--3h5---0-5h6-3---0--0--3h5---0-5h6-3---0--3h5---0-5h6-3---0--3/5---3/5---3/5-----|

[Verse](with tremolo/slapback delay)
E|---------------------------------------------------------------------------|
B|---------------------------------------------------------------------------|
G|---------------------------------------------------------------------------|
D|-7-(7)-(7)-(7)-9-10-7-(7)-(7)-(7)-9-10-5-(5)-(5)-(5)-9-10-7-(7)-(7)-(7)----|x4 (don't sustain last note 
A|---------------------------------------------------------------------------|    before chorus)
D|---------------------------------------------------------------------------|

[Chorus]
E|------------------------------------------------------------------------------------|
B|------------------------------------------------------------------------------------|
G|------------------------------------------------------------------------------------|
D|------------------------------------------------------------------------------------| x2
A|--------5---------3-----------5---------3--------5---------3--------6-----6-----6---|
D|-0--3h5---0-5h6-3---0--0--3h5---0-5h6-3---0--3h5---0-5h6-3---0--3/5---3/5---3/5-----|

[Verse](with tremolo/slapback delay)
E|---------------------------------------------------------------------------|
B|---------------------------------------------------------------------------|
G|---------------------------------------------------------------------------|
D|-7-(7)-(7)-(7)-9-10-7-(7)-(7)-(7)-9-10-5-(5)-(5)-(5)-9-10-7-(7)-(7)-(7)----| x4 
A|---------------------------------------------------------------------------|    
D|---------------------------------------------------------------------------|

[Chorus]
E|------------------------------------------------------------------------------------|
B|------------------------------------------------------------------------------------|
G|------------------------------------------------------------------------------------|
D|------------------------------------------------------------------------------------| x2
A|--------5---------3-----------5---------3--------5---------3--------6-----6-----6---|
D|-0--3h5---0-5h6-3---0--0--3h5---0-5h6-3---0--3h5---0-5h6-3---0--3/5---3/5---3/5-----|

[Bridge]
E|--------------------------------------------------------------------------------------------|
B|--------------------------------------------------------------------------------------------|
G|--------------------------------------------------------------------------------------------|
D|--------------------------------------------------------------------------------------------|
A|-5---3---5---3---5-3-----5---3---5---3---5-3-----5---3---5---3---5-3---------------0--3--5--|
D|---------------------3-5---------------------3-5---------------------3-5--0--3--5-----------|

E|----------------------------------------------------------------------------------------------------|
B|----------------------------------------------------------------------------------------------------|
G|----------------------------------------------------------------------------------------------------|
D|-1--1--1---1-1--------------------1--1--1---1-1-------------------1--1--1---1-1---------------------|
A|-1--1--1---1-1---------------0-3--1--1--1---1-1---------------0-3-1--1--1---1-1---------------0-3---|    
D|-1--1--1---1-1---0---3---5--------1--1--1---1-1---0---3---5-------1--1--1---1-1---0---3---5---------|

[Outro]
E|---------------------------------------------------------------------------|
B|---------------------------------------------------------------------------|
G|---------------------------------------------------------------------------|
D|-1--1--1---1-1---1--1--1---1-1---1--1--1---1-1---1--1--1---1-1-------------|
A|-1--1--1---1-1---1--1--1---1-1---1--1--1---1-1---1--1--1---1-1-------------|
D|-1--1--1---1-1---1--1--1---1-1---1--1--1---1-1---1--1--1---1-1-------------|

E|---1------------------1------------------1------------------0---------------------|
B|-----3------------------3------------------3------------------3-------------------|
G|-------0-0h1p0---0--------0-0h1p0---0--------0-0h1p0---0--------0-0h1p0---0-------|
D|-0-------------3---0--------------3---0--------------3------------------3---0-----| x4
A|---------------------------------------------------------3------------------------|
D|----------------------------------------------------------------------------------|

************************************

| h    Hammer-on
| p    Pull-off
| /    Slide up
| (n)  Ghost note

************************************

            
            
Suggest correction
Creating personal tab
Creating personal tab
You can edit any tab online and save it as your Personal.

You can edit, replace or remove any tab part or add personal notes – all changes will be seen only by you.

Personal tabs can be accessed anytime from any device, even offline.
Learn more »
comments
print report bad tab
4 comments total. Showing first comments.
+2 reply
Armotron 15 Jun 18, 2017 04:52 PM

For the verse Tom uses a digi-tech whammy probably set to 2 octaves. As this is his traditional setting.

Love your tab and thanks for posting this. I am a huge Tom Morello fan!

Just a piece of constructive criticism: You are right the Tuning for the song is in Drop-D tuning however, you have it as DGCFAD normal drop tuning as we all know is DADGBE.

0 reply
scopin27 118 Jun 20, 2017 06:21 AM

happy you like the tab
i stuffed up the tuning but it is in drop d
thanks

0 reply
Armotron 15 Jun 20, 2017 08:35 PM

No worries man. Just looking out for you.

guest
You may want to rate the tab now too:
select rating
Wanna post a correction for this tab? Suggest correction