Oops, an error
Loading. Please wait.

The Devil In His Youth tab

1,861 views 30 this week
3 commentsread comments
1 2 3 4 5
x 6
add to favorites
×
Save as Personal and add changes to this tab that will be seen only by you. Learn more ›
×
You can save this tab as Personal to edit and correct it or add notes. All changes will be seen only by you. Learn more »
launch autoscroll
font size
0
reset
how to read this tab
guitar tuner
edit
Autoscroll
slow
fast
+/-
esc
set tempo
stop
-------------------------------------------------------------------------------
                      THE DEVIL IN HIS YOUTH - Protomartyr
-------------------------------------------------------------------------------
Tabbed by: Joe Bossanova
E-mail: guyfawkes211212@gmail.com

Disclaimer: I am a newbie in this and I'm not even a skilled-guitarrist. I just figured out
by ear a possible (and maybe the worst) version of playing this awesome song.

The rythm guitar plays with a capo live, but anyways this is a imo easier version without it.

Tuning: Standard

(Structure is in order for rythm and lead guitar)

RYTHM GUITAR:

First Part
e|---------------------------------------------------------------------------|
B|---------------------------------------------------------------------------|
G|---------------------------------------------------------------------------|\
D|---------------------------------------------------11-11-11-11-11-11-11-11-| \
A|---8-8-8-8-8-8-8-8-5-5-5-5-5-5-5-5-8-8-8-8-8-8-8-8-9--9--9--9--9--9--9--9--|  \
E|---6-6-6-6-6-6-6-6-3-3-3-3-3-3-3-3-6-6-6-6-6-6-6-6-------------------------|   \
                                                                                  x4
e|---------------------------------------------------------------------------|   /
B|---------------------------------------------------------------------------|  /
G|---------------------------------------------------------------------------| /
D|---8-8-8-8-8-8-8-8-8-8-8-8-8-8-8-8-8-8-8-8-8-8-8-8-8-8-8-8-8-8-8-8-8-8-----|/
A|---6-6-6-6-6-6-6-6-6-6-6-6-6-6-6-6-6-6-6-6-6-6-6-6-6-6-6-6-6-6-6-6-6-6-----|
E|---------------------------------------------------------------------------|

Bridge
e|---------------------------------------------------------------------------|
B|---------------------------------------------------------------------------|
G|---------------------------------------------------------------------------|
D|---------------------------10-10-10-10-10-10-10-10-------------------------|
A|---10-10-10-10-10-10-10-10-8--8--8--8--8--8--8--8--10-10-10-10-10-10-10-10-|
E|---8--8--8--8--8--8--8--8--------------------------8--8--8--8--8--8--8--8--|

e|---------------------------------------------------------------------------|
B|---------------------------------------------------------------------------|
G|---9--9--9--9--9--9--9--9--------------------------------------------------|
D|---10-10-10-10-10-10-10-10-8-8-8-8-8-8-8-8-10-10-10-10-10-10-10-10---------|
A|---8--8--8--8--8--8--8--8--6-6-6-6-6-6-6-6-8--8--8--8--8--8--8--8----------|
E|---------------------------------------------------------------------------|

e|---------------------------------------------------|
B|---------------------------------------------------|
G|---------------------------------------------------|
D|---------------------------------------------------|
A|---10-10-10-10-10-10-10-10-10-10-10-10-10-10-10-10-|
E|---8--8--8--8--8--8--8--8--8--8--8--8--8--8--8--8--|

Return
e|---------------------------------------------------------------------------|   
B|---------------------------------------------------------------------------|  
G|---------------------------------------------------------------------------| 
D|---8-8-8-8-8-8-8-8-8-8-8-8-8-8-8-8-8-8-8-8-8-8-8-8-8-8-8-8-8-8-8-8-8-8-----|
A|---6-6-6-6-6-6-6-6-6-6-6-6-6-6-6-6-6-6-6-6-6-6-6-6-6-6-6-6-6-6-6-6-6-6-----|
E|---------------------------------------------------------------------------|

Second Part
e|---------------------------------------------------------------------------|
B|---------------------------------------------------------------------------|
G|---------------------------------------------------------------------------|\
D|---------------------------------------------------------------------------| \
A|---8-8-8-8-8-8-8-8-8-8-8-8-8-8-8-8-8-8-8-8-8-8-8-8-8-8-8-8-8-8-8-8-8-8-----|  \
E|---6-6-6-6-6-6-6-6-6-6-6-6-6-6-6-6-6-6-6-6-6-6-6-6-6-6-6-6-6-6-6-6-6-6-----|   \
                                                                                 x2
e|---------------------------------------------------------------------------|   /
B|---------------------------------------------------------------------------|  /
G|---------------------------------------------------------------------------| /
D|---8-8-8-8-8-8-8-8-8-8-8-8-8-8-8-8-8-8-8-8-8-8-8-8-8-8-8-8-8-8-8-8-8-8-----|/
A|---6-6-6-6-6-6-6-6-6-6-6-6-6-6-6-6-6-6-6-6-6-6-6-6-6-6-6-6-6-6-6-6-6-6-----|
E|---------------------------------------------------------------------------|

End
e|---------------------------------------------------------------------------| 
B|---------------------------------------------------------------------------| 
G|---------------------------------------------------------------------------|
D|---5-----------------------------------------------------------------------|
A|---5-----------------------------------------------------------------------|
E|---3-----------------------------------------------------------------------|



LEAD GUITAR:

First Part
e|---------------------------------------------------------------------------|   
B|---------------------------------------------------------------------------|  
G|---7-7-7-7-7-7-7---------------------7-7-7-7-7-7-7-------------------------| 
D|-----------------8-8-8-8-8-8-8-8-10---------------8-8-8-8-8-8-8-8-10-------|\
A|---------------------------------------------------------------------------| \
E|---------------------------------------------------------------------------|  \
                                                                                x4
e|---------------------------------------------------------------------------|  / 
B|---------------------------------------------------------------------------| / 
G|-------------7-------------------------7-----------------------------------|/
D|---8--10--8-----10--7--10----8--10--8-----10--7--10--8---------------------|
A|---------------------------------------------------------------------------|
E|---------------------------------------------------------------------------|

Return
e|---------------------------------------------------------------------------| 
B|---------------------------------------------------------------------------| 
G|-------------7-------------------------7-----------------------------------|
D|---8--10--8-----10--7--10----8--10--8-----10--7--10--8---------------------|
A|---------------------------------------------------------------------------|
E|---------------------------------------------------------------------------|

Second Part
e|-----------------------------------------------------------------------------|   
B|-----------------------------------------------------------------------------|  
G|-7-7-7-7-7-7-7-------------------------7-7-7-7-7-7-7-------------------------| 
D|---------------10-10-10-10-10-10-10-10---------------10-10-10-10-10-10-10-10-|\
A|-----------------------------------------------------------------------------| \
E|-----------------------------------------------------------------------------|  \
                                                                                  x2
e|-----------------------------------------------------------------------------|  / 
B|-----------------------------------------------------------------------------| / 
G|-------------7-------------------------7-------------------------------------|/
D|---8--10--8-----10--7--10----8--10--8-----10--7--10--8-----------------------|
A|-----------------------------------------------------------------------------|
E|-----------------------------------------------------------------------------|

End
e|---------------------------------------------------------------------------|   
B|---------------------------------------------------------------------------|  
G|---------------------------------------------------------------------------| 
D|---8~-----------------------------------------------------------------------|
A|---------------------------------------------------------------------------|
E|---------------------------------------------------------------------------|


Feel free to comment any suggestions or opinions.

            
            
Suggest correction
Creating personal tab
Creating personal tab
You can edit any tab online and save it as your Personal.

You can edit, replace or remove any tab part or add personal notes – all changes will be seen only by you.

Personal tabs can be accessed anytime from any device, even offline.
Learn more »
comments
print report bad tab
3 comments total.
-1 reply
jay3213 185 Mar 23, 2017 06:31 PM

Missing a lot, but as you said you're a beginner

0 reply
guyfawkes211212 65 Mar 24, 2017 10:38 AM

im sorry if you want I delete it, is it good for you?

0 reply
jay3213 185 Mar 24, 2017 06:45 PM

It isn't bad man, keep it here it's a great version for beginners who want to jam to the song

guest
You may want to rate the tab now too:
select rating
Wanna post a correction for this tab? Suggest correction