Oops, an error
Loading. Please wait.

The Way It Ends solo tab

version 3
version 3

Whole song

Interactive

2,758 views 1 this week
2 commentsread comments
1 2 3 4 5
2 more votes to show rating
add to favorites
×
Save as Personal and add changes to this tab that will be seen only by you. Learn more ›
×
You can save this tab as Personal to edit and correct it or add notes. All changes will be seen only by you. Learn more »
launch autoscroll
font size
0
reset
how to read this tab
guitar tuner
backing track
0:00
0:00
edit
Autoscroll
slow
fast
+/-
esc
set tempo
stop
Author
pay close attention to the articulation, im certain i didn't tab that
out correctly, but just listen to the song and match the articulation,
it makes a huuuuuge difference and makes your playing sound much better
and try to bring the harmonics out aloooot here, helps if you have
active pick-ups, btw its in B flat minor if you want to add stuff

e|---------------------------------------------------------------------------|
b|---------------------------------------------------------------------------|
g|---------------------------------------------------------------------------|
d|//8~-/8-10--11-11~-/13-11-10-11h10------/8-8h10p8p7-8-10-8h10-8~-8-/10--11-|
a|-----------------------------------9~--------------------------------------|
D|-----------------------------------^---------------------------------------|
           slight bend, bring out the harmonic while rebending back to 9

e|------------------------------------------------|      end of ambient solo, i
b|------------------/11~-11h13p11p10~-11-13-------|      added the next part too
g|--------------11~-------------------------------|      cuz its awesome, its a bit
d|11~-/13-11-10-----------------------------------|      of a stretch on your hand,
a|------------------------------------------------|      but just work on it
D|------------------------------------------------|

e|---------------------------------------------------------------------------|
b|---------------------------------------------------------------------------|
g|---------------------------------------------------------------------------|
d|----10---8--------6---8-------10---8-------6---4-------6---4-------6---4---|
a|---------------------------------------------------------------------------|
D|888----8----8-888---8---8-444----4---4-444---4---4-111---1---1-111---1---1-|


first ending                    second ending

e|----------------------- ||    e|----------------------|
b|----------------------- ||    b|----------------------|
g|-----------------------.||    g|----------------------|
d|----8---8-------7---7--.||    d|----8--------------7--|
a|----------------------- ||    a|----------------------|
D|333---3---3-333---3---3 ||    D|333--------3333333----|

don't be too harsh and submit corrections if you want, and sorry for not
tabbing out the actual solo... the ambient solo is more of an interlude..
but it still sounds awesome

            
            
Suggest correction
Creating personal tab
Creating personal tab
You can edit any tab online and save it as your Personal.

You can edit, replace or remove any tab part or add personal notes – all changes will be seen only by you.

Personal tabs can be accessed anytime from any device, even offline.
Learn more »
Give kudos to tab author, rate the tab!
1 2 3 4 5
comments
print report bad tab
2 comments total.
0 reply
tickelmonster 15 May 23, 2009 12:20 PM

the very last note (7 on the d string) is supposed to be a pinch harmonic... oops

0 reply
tickelmonster 15 May 24, 2009 09:08 AM

e|--------------------------
b|-------------------------- thats what the second ending is supposed
g|-------------------------- to be...
d|----8------------7---7*---
a|--------------------------
d|333-------333333---3------

guest
You may want to rate the tab now too:
select rating
Wanna post a correction for this tab? Suggest correction