Oops, an error
Loading. Please wait.

Get A Clue tab

by Prozzak
1,693 views 1 this week
1 commentread comment
1 2 3 4 5
x 5
add to favorites
×
Save as Personal and add changes to this tab that will be seen only by you. Learn more ›
×
You can save this tab as Personal to edit and correct it or add notes. All changes will be seen only by you. Learn more »
launch autoscroll
font size
0
reset
how to read this tab
guitar tuner
edit
Autoscroll
slow
fast
+/-
esc
set tempo
stop
Author
Hi everyone! Here is the tab for Simon and Milo's "Get A Clue". this song is 
really easy to play, and it's a good song too. I love it! 

I can't believe this is the only tab for this song!

Here it is!

Simon and Milo- Get A Clue

Intro/ verses. Pretty easy.(Distorted)

e|---------------------------------------------------|
B|---------------------------------------------------|
G|------------------7-7-7-7-7-7-7--5-5-----5---5-----|
D|---5-5-5-5-5-5-5--7-7-7-7-7-7-7--5-5-555-5-5-5-----|
A|---5-5-5-5-5-5-5--5-5-5-5-5-5-5--3-3-333-3-3-3-----|
E|---3-3-3-3-3-3-3-----------------------------------| x2
     PM........... PM...........      PM.   PM

Prechorus(Clean):

e|---------------------------------------------------|
B|---------------------------------------------------|
G|---------------------------------------------------|
D|---------------------------------------------------|
A|--3-2-0----3-2-0----3-2-0---0~---------------------|
E|--------3--------3--------3------------------------|

Chorus (Distorted)

e|---------------------------------------------------|
B|---------------------------------------------------|
G|------------------7-7-7-7-7-7-7--5-5-5-5-5-5-5-5-5-|
D|---5-5-5-5-5-5-5--7-7-7-7-7-7-7--5-5-5-5-5-5-5-5-5-|
A|---5-5-5-5-5-5-5--5-5-5-5-5-5-5--3-3-3-3-3-3-3-3-3-|
E|---3-3-3-3-3-3-3-----------------------------------| x2

At the end of that, there's:

e|---------------------------------------------------|
B|---------------------------------------------------|
G|---7-7-7-7-7-7-5-5-5-5-5-5-7-7---------------------|
D|---7-7-7-7-7-7-5-5-5-5-5-5-7-7---------------------|
A|---5-5-5-5-5-5-3-3-3-3-3-3-5-5-5-4-2-0-------------|
E|---------------------------------------3-----------|
                                 PM.......

Solo/ Fill (Distorted)(Note: the first time you do this you only 
do those first 5 notes.):

e|------7~-10~-----------------7~-10~----------------|
B|---8~--------7~-5~--------8~--------7~-5~-8p7h8p7h8|
G|-------------------WAIT...-------------------------|
D|---------------------------------------------------|
A|---------------------------------------------------|
E|---------------------------------------------------|

Verse (Intro again...)

Chorus again...

Fill:

e|------7~-10~-----------------7~-10~----------------|
B|---8~--------7~-5~--------8~--------7~-5~-8p7h8p7h8|
G|-------------------WAIT...-------------------------|
D|---------------------------------------------------|
A|---------------------------------------------------|
E|---------------------------------------------------|

Bridge (Clean):

e|---------------------------------------------------|
B|---------------------------------------------------|
G|---------------------------------------------------|
D|---------------------------------------------------|
A|---3~----------3~----------3~-5~-3~-5~-3~-5~-------|
E|------3~-5~-1~----3~-5~-1~-------------------------|

Bridge part two (Distorted):

e|---------------------------------------------------|
B|---------------------------------------------------|
G|---------------------------------------------------|
D|---------------------------------------------------|
A|--5-5-4-4-2-2-0-0-2~-------------------------------|
E|---------------------------------------------------|

ROCK THE MIC! (Don't know the guitar part for that...)

Fill:

e|------7~-10~-----------------7~-10~----------------|
B|---8~--------7~-5~--------8~--------7~-5~--7b-8b---|
G|-------------------WAIT...-------------------------|
D|---------------------------------------------------|
A|---------------------------------------------------|
E|---------------------------------------------------|

Verse...

Chorus...

Fill:

e|------7~-10~-----------------7~-10~----------------|
B|---8~--------7~-5~--------8~--------7~-5~-8p7h8p7h8|
G|-------------------WAIT...-------------------------|
D|---------------------------------------------------|
A|---------------------------------------------------|
E|---------------------------------------------------| x4

You're all done! There you go!



            
            
Suggest correction
Creating personal tab
Creating personal tab
You can edit any tab online and save it as your Personal.

You can edit, replace or remove any tab part or add personal notes – all changes will be seen only by you.

Personal tabs can be accessed anytime from any device, even offline.
Learn more »
comments
print report bad tab
1 comment total.
+1 reply
DreaminElectric 33 Sep 26, 2010 02:32 PM

I could swear there's a key change at the end, shortly after the rock the mic part when he goes back to the intro, but i can place it

guest
You may want to rate the tab now too:
select rating
Wanna post a correction for this tab? Suggest correction