Oops, an error
Loading. Please wait.

Torero tab

38 views 1 this week
no commentswrite comment
1 2 3 4 5
3 more votes to show rating
add to favorites
×
Save as Personal and add changes to this tab that will be seen only by you. Learn more ›
×
You can save this tab as Personal to edit and correct it or add notes. All changes will be seen only by you. Learn more »
launch autoscroll
font size
0
reset
how to read this tab
guitar tuner
edit
Autoscroll
slow
fast
+/-
esc
set tempo
stop
Intro: Am-G


    G         Am
e---3---    E---5---
B---3---    B---5---
G---4---    G---5---
D---5---    D---7---
A---5---    A---7---
E---3---    E---5---

Imitando trompeta con el bajo

e----------------------------------------
B----------------------------------------
G----------------------------------------
D----------------------------------------
A ---------------------------------3-----           x2
E-5-5-5-3-3-5-5-3-3-3-5-5-3----5------5--


e--------------------------------------------------------------------
B--------------------------------------------------------------------
G--------------------------------------------------------------------
D---------------2----------------------------------------------------
A-------3?--------5----3-------------3-------------------------------
E----5?---5...---------------5-5-3-5------5-3-3-3-3-3-3-3?-----------

AKI EMPIEZA LA KANCION  el rasgueo es al estilo ska

e?  corrida de toro que irracional
e?  festejan la tortura de un pobre animal            x2

Am... G-G  x2

Am                     G
Vendez muerte en una fiezta
          Am                        G
i en el ruedo el pobre toro ke no puede ezcapar ,
      Am                         G
Banderillaz ke ze clavan en zu cuerpo ia canzado
      Am                       G
i zu zangre zalpicando i tu lo vez ¡Tu lo vez!

(iwal ke arriba)
Cortan rabo i oreja
io no entiendo por ke hai ke feztejar
La muerte i la tortura no ez arte ni cultura
Eze lema no lo debez olvidar.

Am                          G
Plaza de Acho recinto criminal ,
Am                          G
gente ke paga por ver azezinar
Am                          G
Ezoz tipoz ke dicen zer toreroz
Am
zi kieren ver zangre...  ¡Córtate loz Huevoz!

(Distorsión)

A5.. C5-D5 / A5.. C5-D5 / A5.. C5-D5-E5
                                        TORERO !
A5.. C5-D5 / A5.. C5-D5 / A5.. C5-D5-E5
                                        AZEZINO !
A5.. C5-D5 / A5.. C5-D5 / A5.. C5-D5-E5
                                        TORERO !
A5.. C5-D5 / A5.. C5-D5 / A5.. C5-D5-E5
                                        KRIMINAL !!

No kiero ver tortura animal
e-----------------------------
B-----------------------------
G-----------------------------
D-----------------------------
A-5-6-6-5-6-5---5-6-6-5-6-----
E-------------------------7---

, Nunca maz tortura animal...
e-----------------------------
B-----------------------------
G-----------------------------
D-----------------------------
A-----------3-----------------
E-3-5-5-3-5------3-5-5-3-5-1--


Manolete , El Juli , Pakirri... Trez , doz , uno ...

 ¡Torero Criminal!

ALGUN PEDIDO SOLO DIGANMELO AMI CORREO delapunktamare@

            
            
Suggest correction
Creating personal tab
Creating personal tab
You can edit any tab online and save it as your Personal.

You can edit, replace or remove any tab part or add personal notes – all changes will be seen only by you.

Personal tabs can be accessed anytime from any device, even offline.
Learn more »
Give kudos to tab author, rate the tab!
1 2 3 4 5
comments
print report bad tab
guest
Wanna post a correction for this tab? Suggest correction