Oops, an error
Loading. Please wait.

Girl Directions bass

version 1
version 1

Whole song

Interactive

3,911 views 1 this week
no commentswrite comment
1 2 3 4 5
2 more votes to show rating
add to favorites
×
Save as Personal and add changes to this tab that will be seen only by you. Learn more ›
×
You can save this tab as Personal to edit and correct it or add notes. All changes will be seen only by you. Learn more »
launch autoscroll
font size
0
reset
guitar tuner
edit
Autoscroll
slow
fast
+/-
esc
set tempo
stop
Author
Difficulty
Girl Directions by psychostick. 

All slapping and popping (for verse parts) 

Its not perfect but you can pritty much figure out when to play what riff



Intro

G|--------------------------------------------------------------------|
D|--------------------------------------------------------------------|
A|--------------------------------------------------------------------|
E|---3-2-3-2----3-2-3-2-----------------------------------------------|
B|--------------------------------------------------------------------|
GIRL DIRECTIONS GIRL DIRECTIONS

Verse

G|-----------------------------------------------------X---X---11-----9-------|
D|----------X-------X-----4------2--------------------------------11----11----|
A|---------------------------4------4---0-------9---X----X---X--------------0-|
E|---2--X------X-------X------------------------------------------------------|
B|----------------------------------------------------------------------------|


X2

INTRO AGAIN

At this part you play the same verse as ubove twice but then a 3rd verse is added 
and it goes like this


G|-----------------------------------------------------------X-------11---9-|
D|-----------X------4-----X------X------2-----------------------------------|
A|------------------------------------------4----0----9--X------X-----------|
E|---2---X------X------X-----X------X---------------------------------------|
B|--------------------------------------------------------------------------|

CHORUS 

G|----------------------------------------------------------------------------------------------|
D|----------------------------------------------------------------------------------------------|
A|----------------------------------------------------------------------------------------------|
E|---------------------1-2-3-4-------------------1-2-3-4-----------------1-2-3-4----------------|
B|---2-2-2-2-2-2-2-2-2---------2-2-2-2-2-2-2-2-2---------2-2-2-2-2-2-2-2--------2-2-2-2-2-2-----|

Something like this.

OUTRO

G|-------------------------------------------------------------------------|
D|-------------------------------------------------------------------------|
A|-------------------------------------------------------------------------|
E|-------------------------------------------------------------------------|
B|--2-2-2-2-2-2-2-2-2-2-2-2-2-2-2-2-2-2-2-2-2-2-2-2-2-2-2-2-2-2-2-2-2------|

PLAY IN THIS ORDER 

INTRO
VERSE
VERSE
INTRO
VERSE
VERSE
VERSE 2
CHORUS
INTRO
VERSE
VERSE
INTRO
VERSE
VERSE
VERSE 2
CHORUS
OUTRO

            
            
Suggest correction
Creating personal tab
Creating personal tab
You can edit any tab online and save it as your Personal.

You can edit, replace or remove any tab part or add personal notes – all changes will be seen only by you.

Personal tabs can be accessed anytime from any device, even offline.
Learn more »
Give kudos to tab author, rate the tab!
1 2 3 4 5
comments
print report bad tab
guest
You may want to rate the tab now too:
select rating
Wanna post a correction for this tab? Suggest correction