Oops, an error
Loading. Please wait.

Prozak Milkshake tab

1,084 views 9 this week
no commentswrite comment
1 2 3 4 5
2 more votes to show rating
add to favorites
×
Save as Personal and add changes to this tab that will be seen only by you. Learn more ›
×
You can save this tab as Personal to edit and correct it or add notes. All changes will be seen only by you. Learn more »
launch autoscroll
font size
0
reset
how to read this tab
guitar tuner
edit
Autoscroll
slow
fast
+/-
esc
set tempo
stop
-------------------------------------------------------------------------------
                             Prozak Milkshake
 - Psychostick
-------------------------------------------------------------------------------
Tabbed by:Gingernutsjonny

Tuning: C# G# C# F# A# D#

*song is in 3/4 time*


D#|-0-0--0-0---|-0-0--0-0---|-0-0--0-0---|-0-0--0-0---|
A#|---------6--|---------6--|---------6--|---------6--|
F#|7----7----7-|7----7----7-|7----7----7-|7----7----7-|
C#|------------|------------|------------|------------|
G#|------------|------------|------------|------------|
C#|------------|------------|------------|------------| x3

D#|---0--0----0--0-----|---0--0----0--0-----|----0--0----0--0-----|-----0--0----0--0-----|
A#|----------------6---|----------------6---|-----------------6---|------------------6---|
F#|-7-------7--------7-|-7-------7--------7-|-7--------7--------7-|---7-------7--------7-|
C#|--------------------|--------------------|---------------------|----------------------|
G#|--------------------|--------------------|---------------------|----------------------|
C#|--------------------|--------------------|---------------------|----------------------|
               |                     |                      |
D#|--------------------|--------------------|---------------------|----------------------|
A#|1515-15-1515-151515-|1515-15-1515-151515-|15-15-15-1515-151515-|--1515-15-1515-151515-|
F#|1515-15-1515-151515-|1515-15-1515-151515-|15-15-15-1515-151515-|--1515-15-1515-151515-|
C#|1313-13-1313-131313-|1313-13-1313-131313-|13-13-13-1313-131313-|--1313-13-1313-131313-|
G#|--------------------|--------------------|---------------------|----------------------|
C#|--------------------|--------------------|---------------------|----------------------|
          |                    |                     |                      |
D#|--------------------|--------------------|---------------------|----------------------|
A#|--------------------|--------------------|---------------------|----------------------|
F#|-7------------------|-9--------10--------|10h12------10--------|(10)------------------|
C#|--------------------|--------------------|---------------------|----------------------|
G#|--------------------|--------------------|---------------------|----------------------|
C#|--------------------|--------------------|---------------------|----------------------|

D#|---0--0----0--0-----|---0--0----0--0-----|----0--0-------0--0-----|------0--0----0--0-----|
A#|----------------6---|----------------6---|--------------------6---|-------------------6---|
F#|-7-------7--------7-|-7-------7--------7-|-7----------7---------7-|----7-------7--------7-|
C#|--------------------|--------------------|------------------------|-----------------------|
G#|--------------------|--------------------|------------------------|-----------------------|
C#|--------------------|--------------------|------------------------|-----------------------|
        |                    |                        |                   
   |
D#|--------------------|--------------------|------------------------|-----------------------|
A#|1515-15-1515-151515-|1515-15-1515-151515-|15-15-15---15-15-151515-|---1515-15-1515-151515-|
F#|1515-15-1515-151515-|1515-15-1515-151515-|15-15-15---15-15-151515-|---1515-15-1515-151515-|
C#|1313-13-1313-131313-|1313-13-1313-131313-|13-13-13---13-13-131313-|---1313-13-1313-131313-|
G#|--------------------|--------------------|------------------------|-----------------------|
C#|--------------------|--------------------|------------------------|-----------------------|
  |                    |                    |                        |                   
   |
D#|--------------------|--------------------|------------------------|-----------------------|
A#|--------------------|--------------------|------------------------|-----------------------|
F#|-7------------------|-9--------10--------|10h12---10h12p10--------|(10)\------------------|
C#|--------------------|--------------------|------------------------|-----------------------|
G#|--------------------|--------------------|------------------------|-----------------------|
C#|--------------------|--------------------|------------------------|-----------------------|

D#|-0-0--0-0---|-0-0--0-0---|-0-0--0-0---|-0-0--0-0---|
A#|---------6--|---------6--|---------6--|---------6--|
F#|7----7----7-|7----7----7-|7----7----7-|7----7----7-|
C#|------------|------------|------------|------------|
G#|------------|------------|------------|------------|
C#|------------|------------|------------|------------| x4

D#|--------------------|--------------------|------------|---------------|
A#|--------------------|--------------------|------------|---------------|
F#|1010-10-1010-101010-|1010-10-1010-101010-|88-8-88-888-|88-8-88-101010-|
C#|1010-10-1010-101010-|1010-10-1010-101010-|88-8-88-888-|88-8-88-101010-|
G#|-8-8--8--8-8--8-8-8-|-8-8--8--8-8--8-8-8-|66-6-66-666-|66-6-66--8-8-8-|
C#|--------------------|--------------------|------------|---------------|

D#|------------|------------|------------|------------|------------|------------|
A#|------------|------------|------------|------------|------------|------------|
F#|77-7-77-777-|77-7-77-777-|66-6-66-6666|66-6-66-6666|66-6-666-6-6|6666--------|
C#|77-7-77-777-|77-7-77-777-|66-6-66-6666|66-6-66-6666|66-6-666-6-6|6666--------|
G#|55-5-55-555-|55-5-55-555-|44-4-44-4444|44-4-44-4444|44-4-444-4-4|4444--------|
C#|------------|------------|------------|------------|------------|------------|


PM                                                * *
D#|------------|------------|------------|------------|
A#|------------|------------|------------|------------|
F#|77-7-77-7-7-|99-9-99-9-9-|33-3-33-3-3-|33-3-33-3-3-|
G#|77-7-77-7-7-|99-9-99-9-9-|33-3-33-3-3-|33-3-33-3-3-|
C#|55-5-55-5-5-|77-7-77-7-7-|11-1-11-1-1-|11-1-11-1-1-|
G#|------------|------------|------------|------------|
  |            |            |            |
D#|8-----------|------------|8-----------|------------|
A#|------6-----|5-----6-----|------6-----|5-----------|
F#|------------|------------|------------|------5-----|
C#|------------|------------|------------|------------|
G#|------------|------------|------------|------------|
C#|------------|------------|------------|------------|

D#|------------|------------|------------|------------|
A#|------------|------------|------------|------------|
F#|77-7-77-7-7-|55-5-55-5-5-|33-3-33-3-3-|33-3-33-----|
G#|77-7-77-7-7-|55-5-55-5-5-|33-3-33-3-3-|33-3-33-----|
C#|55-5-55-5-5-|33-3-33-3-3-|11-1-11-1-1-|11-1-11-----|
G#|------------|------------|------------|------------|
  |            |            |            |            |
D#|8-----------|------------|8-----------|------------|
A#|------6-----|5-----6-----|------6-----|5-----------|
F#|------------|------------|------------|------5-----|
C#|------------|------------|------------|------------|
G#|------------|------------|------------|------------|
C#|------------|------------|------------|------------|

PM                                                * *
D#|------------|------------|------------|------------|
A#|------------|------------|------------|------------|
F#|77-7-77-7-7-|99-9-99-9-9-|33-3-33-3-3-|33-3-33-3-3-|
G#|77-7-77-7-7-|99-9-99-9-9-|33-3-33-3-3-|33-3-33-3-3-|
C#|55-5-55-5-5-|77-7-77-7-7-|11-1-11-1-1-|11-1-11-1-1-|
G#|------------|------------|------------|------------|
  |            |            |            |            |
D#|8-----------|------------|8-----------|------------|
A#|------6-----|5-----6-----|------6-----|5-----------|
F#|------------|------------|------------|------5-----|
C#|------------|------------|------------|------------|
G#|------------|------------|------------|------------|
C#|------------|------------|------------|------------|

PM                                                * *
D#|------------|------------|------------|------------|
A#|------------|------------|------------|------------|
F#|77-7-77-7-7-|55-5-55-5-5-|33-3-33-3-3-|33-3-33-3-3-|
G#|77-7-77-7-7-|55-5-55-5-5-|33-3-33-3-3-|33-3-33-3-3-|
C#|55-5-55-5-5-|33-3-33-3-3-|11-1-11-1-1-|11-1-11-1-1-|
G#|------------|------------|------------|------------|
  |            |            |            |            |
D#|8-----------|------------|8-----------|------------|
A#|------6-----|5-----6-----|------6-----|5-----------|
F#|------------|------------|------------|------5-----|
C#|------------|------------|------------|------------|
G#|------------|------------|------------|------------|
C#|------------|------------|------------|------------|


D#|---0--0----0--0-----|---0--0----0--0-----|----0--0----0--0-------|---0---0-----0--0-----|
A#|----------------6---|----------------6---|-----------------6-----|------------------6---|
F#|-7-------7--------7-|-7-------7--------7-|-7--------7--------7---|-7---------7--------7-|
C#|--------------------|--------------------|-----------------------|----------------------|
G#|--------------------|--------------------|-----------------------|----------------------|
C#|--------------------|--------------------|-----------------------|----------------------|
               |                       |                    
 |
D#|--------------------|--------------------|-----------------------|----------------------|
A#|1515-15-1515-151515-|1515-15-1515-151515-|15-15-15-1515-151515---|1515--15--1515-151515-|
F#|1515-15-1515-151515-|1515-15-1515-151515-|15-15-15-1515-151515---|1515--15--1515-151515-|
C#|1313-13-1313-131313-|1313-13-1313-131313-|13-13-13-1313-131313---|1313--13--1313-131313-|
G#|--------------------|--------------------|-----------------------|----------------------|
C#|--------------------|--------------------|-----------------------|----------------------|
          |                    |                       |                    
 |
D#|--------------------|--------------------|-----------------------|----------------------|
A#|--------------------|--------------------|-----------------------|11--------------------|
F#|7-------------------|-9--------10--------|10h12------10-----10h12|----12--10--10-12--10-|
C#|--------------------|--------------------|-----------------------|----------------------|
G#|--------------------|--------------------|-----------------------|----------------------|
C#|--------------------|--------------------|-----------------------|----------------------|

D#|---0--0----0--0-----|---0--0----0--0-----|----0--0----0--0-------|---0--0----0---0-----|
A#|----------------6---|----------------6---|-----------------6-----|-----------------6---|
F#|-7-------7--------7-|-7-------7--------7-|-7--------7--------7---|-7-------7---------7-|
C#|--------------------|--------------------|-----------------------|---------------------|
G#|--------------------|--------------------|-----------------------|---------------------|
C#|--------------------|--------------------|-----------------------|---------------------|
        |                    |                       |                    
|
D#|--------------------|--------------------|-----------------------|---------------------|
A#|1515-15-1515-151515-|1515-15-1515-151515-|15-15-15-1515-151515---|1515-15-1515--151515-|
F#|1515-15-1515-151515-|1515-15-1515-151515-|15-15-15-1515-151515---|1515-15-1515--151515-|
C#|1313-13-1313-131313-|1313-13-1313-131313-|13-13-13-1313-131313---|1313-13-1313--131313-|
G#|--------------------|--------------------|-----------------------|---------------------|
C#|--------------------|--------------------|-----------------------|---------------------|
                       |                    |                       |                    
|
D#|--------------------|--------------------|-----------------------|---------------------|
A#|--------------------|--------------------|-----------------------|13--------11\--------|
F#|7-------------------|-9--------10--------|10h12------10-----10h12|---------------------|
C#|--------------------|--------------------|-----------------------|---------------------|
G#|--------------------|--------------------|-----------------------|---------------------|
C#|--------------------|--------------------|-----------------------|---------------------|

D#|-0-0--0-0---|-0-0--0-0---|-0-0--0-0---|-0-0--0-0---|
A#|---------6--|---------6--|---------6--|---------6--|
F#|7----7----7-|7----7----7-|7----7----7-|7----7----7-|
C#|------------|------------|------------|------------|
G#|------------|------------|------------|------------|
C#|------------|------------|------------|------------| x4

D#|--------------------|--------------------|------------|---------------|
A#|--------------------|--------------------|------------|---------------|
F#|1010-10-1010-101010-|1010-10-1010-101010-|88-8-88-888-|88-8-88-101010-|
C#|1010-10-1010-101010-|1010-10-1010-101010-|88-8-88-888-|88-8-88-101010-|
G#|-8-8--8--8-8--8-8-8-|-8-8--8--8-8--8-8-8-|66-6-66-666-|66-6-66--8-8-8-|
C#|--------------------|--------------------|------------|---------------|

D#|------------|------------|------------|------------|------------|------------|
A#|------------|------------|------------|------------|------------|------------|
F#|77-7-77-777-|77-7-77-777-|66-6-66-6666|66-6-66-6666|66-6-666-6-6|6666--------|
C#|77-7-77-777-|77-7-77-777-|66-6-66-6666|66-6-66-6666|66-6-666-6-6|6666--------|
G#|55-5-55-555-|55-5-55-555-|44-4-44-4444|44-4-44-4444|44-4-444-4-4|4444--------|
C#|------------|------------|------------|------------|------------|------------|


PM                                                * *
D#|------------|------------|------------|------------|
A#|------------|------------|------------|------------|
F#|77-7-77-7-7-|99-9-99-9-9-|33-3-33-3-3-|33-3-33-3-3-|
G#|77-7-77-7-7-|99-9-99-9-9-|33-3-33-3-3-|33-3-33-3-3-|
C#|55-5-55-5-5-|77-7-77-7-7-|11-1-11-1-1-|11-1-11-1-1-|
G#|------------|------------|------------|------------|
  |            |            |            |
D#|8-----------|------------|8-----------|------------|
A#|------6-----|5-----6-----|------6-----|5-----------|
F#|------------|------------|------------|------5-----|
C#|------------|------------|------------|------------|
G#|------------|------------|------------|------------|
C#|------------|------------|------------|------------|

D#|------------|------------|------------|------------|
A#|------------|------------|------------|------------|
F#|77-7-77-7-7-|55-5-55-5-5-|33-3-33-3-3-|33-3-33-----|
G#|77-7-77-7-7-|55-5-55-5-5-|33-3-33-3-3-|33-3-33-----|
C#|55-5-55-5-5-|33-3-33-3-3-|11-1-11-1-1-|11-1-11-----|
G#|------------|------------|------------|------------|
  |            |            |            |            |
D#|8-----------|------------|8-----------|------------|
A#|------6-----|5-----6-----|------6-----|5-----------|
F#|------------|------------|------------|------5-----|
C#|------------|------------|------------|------------|
G#|------------|------------|------------|------------|
C#|------------|------------|------------|------------|

PM                                                * *
D#|------------|------------|------------|------------|
A#|------------|------------|------------|------------|
F#|77-7-77-7-7-|99-9-99-9-9-|33-3-33-3-3-|33-3-33-3-3-|
G#|77-7-77-7-7-|99-9-99-9-9-|33-3-33-3-3-|33-3-33-3-3-|
C#|55-5-55-5-5-|77-7-77-7-7-|11-1-11-1-1-|11-1-11-1-1-|
G#|------------|------------|------------|------------|
  |            |            |            |            |
D#|8-----------|------------|8-----------|------------|
A#|------6-----|5-----6-----|------6-----|5-----------|
F#|------------|------------|------------|------5-----|
C#|------------|------------|------------|------------|
G#|------------|------------|------------|------------|
C#|------------|------------|------------|------------|

PM                                                * *
D#|------------|------------|------------|------------|
A#|------------|------------|------------|------------|
F#|77-7-77-7-7-|55-5-55-5-5-|33-3-33-3-3-|33-3-33-3-3-|
G#|77-7-77-7-7-|55-5-55-5-5-|33-3-33-3-3-|33-3-33-3-3-|
C#|55-5-55-5-5-|33-3-33-3-3-|11-1-11-1-1-|11-1-11-1-1-|
G#|------------|------------|------------|------------|
  |            |            |            |            |
D#|8-----------|------------|8-----------|------------|
A#|------6-----|5-----6-----|------6-----|5-----------|
F#|------------|------------|------------|------5-----|
C#|------------|------------|------------|------------|
G#|------------|------------|------------|------------|
C#|------------|------------|------------|------------|

PM      *     *      *     *
D#|------------|------------|------------|------------|
A#|------------|------------|------------|------------|
F#|77-7-777-7-7|77-7-777-7-7|------------|------------|
C#|77-7-777-7-7|77-7-777-7-7|77-7-777-7-7|88-8-888-8-8|
G#|55-5-555-5-5|55-5-555-5-5|77-7-777-7-7|88-8-888-8-8|
C#|------------|------------|77-7-777-7-7|88-8-888-8-8|

PM      *     *      *     *
D#|------------|------------|------------|------------|
A#|------------|------------|------------|------------|
F#|77-7-777-7-7|77-7-777-7-7|------------|------------|
C#|77-7-777-7-7|77-7-777-7-7|55-5-555-5-5|88-8-877-7-7|
G#|55-5-555-5-5|55-5-555-5-5|55-5-555-5-5|88-8-877-7-7|
C#|------------|------------|55-5-555-5-5|88-8-877-7-7|

PM      *     *      *     *
D#|------------|------------|------------|------------|
A#|------------|------------|------------|------------|
F#|77-7-777-7-7|77-7-777-7-7|------------|------------|
C#|77-7-777-7-7|77-7-777-7-7|77-7-777-7-7|88-8-888-8-8|
G#|55-5-555-5-5|55-5-555-5-5|77-7-777-7-7|88-8-888-8-8|
C#|------------|------------|77-7-777-7-7|88-8-888-8-8|

PM      *     *      *     *
D#|------------|------------|------------|------------|
A#|------------|------------|------------|------------|
F#|77-7-777-7-7|77-7-777-7-7|------------|------------|
C#|77-7-777-7-7|77-7-777-7-7|55-5-555-5-5|88-8-877-7-7|
G#|55-5-555-5-5|55-5-555-5-5|55-5-555-5-5|88-8-877-7-7|
C#|------------|------------|55-5-555-5-5|88-8-877-7-7|


D#|-0-0--0-0---|---0-0--0-0---|-0-0--0-0---|---0-0--0--0---|
A#|---------6--|-----------6--|---------6--|------------6--|
F#|7----7----7-|--7----7----7-|7----7----7-|--7----7-----7-|
C#|------------|--------------|------------|---------------|
G#|------------|--------------|------------|---------------|
C#|------------|--------------|------------|---------------|
  |              |            |               |
D#|------------|--------------|------------|---------------|
A#|------------|--------------|------------|---------------|
F#|------------|--------------|------------|---------------|
C#|0-----------|(0)-----------|8-----------|(8)-----x\-----|
G#|0-----------|(0)-----------|8-----------|(8)------------|
C#|0-----------|(0)-----------|8-----------|(8)------------|


D#|-0-0--0-0---|---0-0--0-0---|-0-0--0-0---|---0-0--0-0---|
A#|---------6--|-----------6--|---------6--|-----------6--|
F#|7----7----7-|--7----7----7-|7----7----7-|--7----7----7-|
C#|------------|--------------|------------|--------------|
G#|------------|--------------|------------|--------------|
C#|------------|--------------|------------|--------------|
  |              |            |              |
D#|------------|--------------|------------|--------------|
A#|------------|--------------|------------|--------------|
F#|------------|--------------|------------|--------0-----|
C#|0-----------|(0)-----------|8-----------|(8)-----------|
G#|0-----------|(0)-----------|8-----------|(8)-----------|
C#|0-----------|(0)-----------|8-----------|(8)-----------|



D#|---0--0----0--0-----|---0--0----0--0-----|---0---0-----0--0-----|----0--0----0--0-----|
A#|----------------6---|----------------6---|------------------6---|-----------------6---|
F#|-7-------7--------7-|-7-------7--------7-|-7---------7--------7-|-7--------7--------7-|
C#|--------------------|--------------------|----------------------|---------------------|
G#|--------------------|--------------------|----------------------|---------------------|
C#|--------------------|--------------------|----------------------|---------------------|
               |                      |                     |
D#|--------------------|--------------------|----------------------|---------------------|
A#|1515-15-1515-151515-|1515-15-1515-151515-|1515--15--1515-151515-|15-15-15-1515-151515-|
F#|1515-15-1515-151515-|1515-15-1515-151515-|1515--15--1515-151515-|15-15-15-1515-151515-|
C#|1313-13-1313-131313-|1313-13-1313-131313-|1313--13--1313-131313-|13-13-13-1313-131313-|
G#|--------------------|--------------------|----------------------|---------------------|
C#|--------------------|--------------------|----------------------|---------------------|
      |                      |                     |
D#|--------------------|--------------------|----------------------|---------------------|
A#|--------------------|--------------------|----------------------|---------------------|
F#|-7------------------|----7--7---9--9---79|-91010-910-910-10-9109|10^--------10-10---9-|
C#|--------------------|--------------------|----------------------|---------------------|
G#|--------------------|--------------------|----------------------|---------------------|
C#|--------------------|--------------------|----------------------|---------------------|

D#|---0--0----0---0-----|---0--0----0--0-----|---0--0----0--0-----|---0--0----0--0-----|
A#|-----------------6---|----------------6---|----------------6---|----------------6---|
F#|-7-------7---------7-|-7-------7--------7-|-7-------7--------7-|-7-------7--------7-|
C#|---------------------|--------------------|--------------------|--------------------|
G#|---------------------|--------------------|--------------------|--------------------|
C#|---------------------|--------------------|--------------------|--------------------|
Volume swells>          |                    |                    |                    |
D#|---------------------|--------------------|--------------------|--------------------|
A#|1515-15-1515--151515-|1515-15-1515-151515-|1515-15-1515-151515-|1515-15-1515-151515-|
F#|1515-15-1515--151515-|1515-15-1515-151515-|1515-15-1515-151515-|1515-15-1515-151515-|
C#|1313-13-1313--131313-|1313-13-1313-131313-|1313-13-1313-131313-|1313-13-1313-131313-|
G#|---------------------|--------------------|--------------------|--------------------|
C#|---------------------|--------------------|--------------------|--------------------|
  |                     |                    |                    |                    |
D#|---------------------|--------------------|--------------------|--------------------|
A#|-------------------8-|--------------------|--------------------|--------------------|
F#|-9109-77---910-9-7---|-9109-77---72-5-2-52|-5-33-23-2-32-3---3-|-2-33-23-2-3--------|
C#|---------------------|--------------------|--------------------|--------------------|
G#|---------------------|--------------------|--------------------|--------------------|
C#|---------------------|--------------------|--------------------|--------------------|


PM                                                * *
D#|------------|------------|------------|------------|
A#|------------|------------|------------|------------|
F#|77-7-77-7-7-|99-9-99-9-9-|33-3-33-3-3-|33-3-33-3-3-|
G#|77-7-77-7-7-|99-9-99-9-9-|33-3-33-3-3-|33-3-33-3-3-|
C#|55-5-55-5-5-|77-7-77-7-7-|11-1-11-1-1-|11-1-11-1-1-|
G#|------------|------------|------------|------------|
  |            |            |            |
D#|8-----------|------------|8-----------|------------|
A#|------6-----|5-----6-----|------6-----|5-----------|
F#|------------|------------|------------|------5-----|
C#|------------|------------|------------|------------|
G#|------------|------------|------------|------------|
C#|------------|------------|------------|------------|

D#|------------|------------|------------|------------|
A#|------------|------------|------------|------------|
F#|77-7-77-7-7-|55-5-55-5-5-|33-3-33-3-3-|33-3-33-----|
G#|77-7-77-7-7-|55-5-55-5-5-|33-3-33-3-3-|33-3-33-----|
C#|55-5-55-5-5-|33-3-33-3-3-|11-1-11-1-1-|11-1-11-----|
G#|------------|------------|------------|------------|
  |            |            |            |            |
D#|8-----------|------------|8-----------|------------|
A#|------6-----|5-----6-----|------6-----|5-----------|
F#|------------|------------|------------|------5-----|
C#|------------|------------|------------|------------|
G#|------------|------------|------------|------------|
C#|------------|------------|------------|------------|

PM                                                     * *
D#|------------|--------------|--------------|-------------|
A#|------------|--------------|--------------|-------------|
F#|77-7-77-7-7-|--99-9-99-9-9-|--33-3-33-3-3-|-33-3-33-3-3-|
G#|77-7-77-7-7-|--99-9-99-9-9-|--33-3-33-3-3-|-33-3-33-3-3-|
C#|55-5-55-5-5-|--77-7-77-7-7-|--11-1-11-1-1-|-11-1-11-1-1-|
G#|------------|--------------|--------------|-------------|
  |            |              |              |             |
D#|8-----------|--------------|--8-----------|-------------|
A#|------6-----|--5-----6-----|--------6-----|-5-----------|
F#|------------|--------------|--------------|-------5-----|
C#|------------|--------------|--------------|-------------|
G#|------------|--------------|--------------|-------------|
C#|------------|--------------|--------------|-------------|
  |              |             |
D#|8-----------|(8)-----------|(8)-----------|12-----8-----|
A#|------------|--------------|--------------|-------------|
F#|------------|--------------|--------------|-------------|
C#|------------|--------------|--------------|-------------|
G#|------------|--------------|--------------|-------------|
C#|------------|--------------|--------------|-------------|

PM                                                  * *
D#|------------|------------|------------|--------------|
A#|------------|------------|------------|--------------|
F#|77-7-77-7-7-|55-5-55-5-5-|33-3-33-3-3-|--33-3-33-3-3-|
G#|77-7-77-7-7-|55-5-55-5-5-|33-3-33-3-3-|--33-3-33-3-3-|
C#|55-5-55-5-5-|33-3-33-3-3-|11-1-11-1-1-|--11-1-11-1-1-|
G#|------------|------------|------------|--------------|
  |            |            |            |              |
D#|8-----------|------------|8-----------|--------------|
A#|------6-----|5-----6-----|------6-----|--5-----------|
F#|------------|------------|------------|--------5-----|
C#|------------|------------|------------|--------------|
G#|------------|------------|------------|--------------|
C#|------------|------------|------------|--------------|
          |            |              |
D#|5-----------|3-----------|1-----------|(1)-----------|
A#|------------|------------|------------|--------------|
F#|------------|------------|------------|--------------|
C#|------------|------------|------------|--------------|
G#|------------|------------|------------|--------------|
C#|------------|------------|------------|--------------|


D#|-0-0--0-0---|-0-0--0-0---|-0-0--0-0---|-0-0--0-0---|
A#|---------6--|---------6--|---------6--|---------6--|
F#|7----7----7-|7----7----7-|7----7----7-|7----7----7-|
C#|------------|------------|------------|------------|
G#|------------|------------|------------|------------|
C#|------------|------------|------------|------------|
  |            |            |            |
PM|     *     *|     *     *|     *     *|     *     *|
D#|------------|------------|------------|------------|
A#|------------|------------|------------|------------|
F#|77-7-777-7-7|77-7-777-7-7|77-7-777-7-7|77-7-777-7-7|
C#|77-7-777-7-7|77-7-777-7-7|77-7-777-7-7|77-7-777-7-7|
G#|55-5-555-5-5|55-5-555-5-5|55-5-555-5-5|55-5-555-5-5|
C#|------------|------------|------------|------------|

D#|-0-0--0-0---|-0-0--0-0---|-0-0--0-0---|-0-0--0-0---|
A#|---------6--|---------6--|---------6--|---------6--|
F#|7----7----7-|7----7----7-|7----7----7-|7----7----7-|
C#|------------|------------|------------|------------|
G#|------------|------------|------------|------------|
C#|------------|------------|------------|------------|
  |            |            |            |            |
PM|     *     *|     *     *|     *     *|     *     *|
D#|------------|------------|------------|------------|
A#|------------|------------|------------|------------|
F#|77-7-777-7-7|77-7-777-7-7|77-7-777-7-7|77-7-777-7-7|
C#|77-7-777-7-7|77-7-777-7-7|77-7-777-7-7|77-7-777-7-7|
G#|55-5-555-5-5|55-5-555-5-5|55-5-555-5-5|55-5-555-5-5|
C#|------------|------------|------------|------------|
  |            |            |            |
D#|8-----------|------------|8-----------|------------|
A#|------6-----|5-----6-----|------6-----|5-----------|
F#|------------|------------|------------|------5-----|
C#|------------|------------|------------|------------|
G#|------------|------------|------------|------------|
C#|------------|------------|------------|------------|

D#|--0-0--0-0---|
A#|----------6--|
F#|7-----7----7-|
C#|-------------|
G#|-------------|
C#|-------------|
  |             |
D#|-------------|
A#|-------------|
F#|7------------|
C#|7------------|
G#|5------------|
C#|-------------|
  |             |
D#|-------------|
A#|-------------|
F#|7\-----------|
C#|-------------|
G#|-------------|
C#|-------------|

D#|-0-0--0-0---|
A#|---------6--|
F#|7----7----7-|
C#|------------|
G#|------------|
C#|------------| x3


D#|-0-0--0-0---|
A#|---------6--|
F#|7----7----7-|
C#|------------|
G#|------------|
C#|------------| x3


D#|0-----------|
A#|6-----------|
F#|7-----------|
C#|0-----------|
G#|------------|
C#|------------|

Legend

h  - hammer on
p  - pull off
/  - slide up to note
\  - slide fret hand down past neck
x\ - slide pick down string from bridge to neck
^  - bend
(x)- notes fretted but not struck *slides, hammer ons and pull offs*
PM - Palm muting on the selected notes
*  - selected single notes for PMs

            
            
Suggest correction
Creating personal tab
Creating personal tab
You can edit any tab online and save it as your Personal.

You can edit, replace or remove any tab part or add personal notes – all changes will be seen only by you.

Personal tabs can be accessed anytime from any device, even offline.
Learn more »
Give kudos to tab author, rate the tab!
1 2 3 4 5
comments
print report bad tab
guest
You may want to rate the tab now too:
select rating
Wanna post a correction for this tab? Suggest correction