Oops, an error
Loading. Please wait.

Lacertine Forest tab

version 1
version 1

Whole song

Interactive

1,351 views 3 this week
no commentswrite comment
1 2 3 4 5
3 more votes to show rating
add to favorites
×
Save as Personal and add changes to this tab that will be seen only by you. Learn more ›
×
You can save this tab as Personal to edit and correct it or add notes. All changes will be seen only by you. Learn more »
launch autoscroll
font size
0
reset
how to read this tab
guitar tuner
edit
Autoscroll
slow
fast
+/-
esc
set tempo
stop
Psycroptic - 'Lacertine Forest'
The Scepter Of The Ancients (2003)
Unique Leader Records

Tabbed by general maxx

____________________________________________________________________________

____________________________________________________________________________
Dropped D Tuning


 Intro:
  Gtr.1
||----------------------------------------||
||----------------------------------------||
||----------------------------------------||
||----------------------------------------||
||-66663355--------666633-----------------||
||---------00000000------44-000-000--000--||

Riff A
  Gtr.1                                        (1x)
||-------------------------------------------------||
||-------------------------------------------------||
||-------------------------------------------------||
||------------------4h5h7-------------7-6-6-3---2--||
||-66663355-65-2h3h5-------6p0333-555-5\4-4\1-000--||
||---------0--4----------00------------------------||


Riff B
  Gtr.1                                                           (1x)
||-------------------------------------------------------------------||
||-------------------------------------------------------------------||
||-------------------------------------------------------------------||
||-------------------------------------------------------------------||
||--------35---------------35-5544748--------35----------1----35--0--||
||-11110h1--0000000-11110h1-----------11110h1--0000000-111-0h1----0--||

Riff A 1x

Riff B 1x

Riff C
  Gtr.1                                                       (1x)
||----------------------------------------------------------------||
||----------------------------------------------------------------||
||-------------------5--------------------------------------------||
||--7----8710----7-8-----8-7---7----------------------------------||
||--5----659------5-5----6-5---5----6p59p5---9-6---------------1--||
||-0--------------------0-0---0-0000------000-0-7541-5410-4110-1--||


Riff D
  Gtr.1                                                                 (1x)
||--------------------------------------------------------------------------|
||--------------------------------------------------------------------------|
||--------------------------------------------------------------------------|
||--7-------------5--7-8-10-------------------------------------------------|
||--5----6p59p5----96-5-5--9--9-6-5-3-5-----6p59p5---9-6---------------1----|
||-0-0000------000-----------0-0-0-0-0--0000------000-0-7541-5410-4110-1----|


Riff E
  Gtr.1                                    1.                 2.
||-----------------|-------------------------|--------------------||
||-----------------|------------------------.|--------------------||
||-----------------|-------------------------|--------------------||
||-----------------|------------------------.|--------------------||
||-66663355--------|666633-------------------|666633---0-1---0-1--||
||---------00000000|------44-000-000-000-000-|------44-0-1---0-1--||


Riff F
  Gtr.1                                 (2x)
||----------------------------|------------||
||----------------------------|-----------.||
||----------------------------|------------|| *Finish Here
||---76---32--------76-------*|-----------.||  2nd Time
||-0-54--0101-----0-54--0-7-5-|-8-7p5------||
||-0-----0--1-----0-----0-7-5-|--7---8p7p0-||


Riff G
  Gtr.1                                            (4x)
||----------------------------------------------------||
||---------------------------------------------------.||
||----------------------------------------------------||
||---------------------------------------------------.||
||-8-7p5----------------------8-7p5-------------------||
||--7---7h8p7p0-0h5h7-0h4-001--7---7h8p7p0-0h5h7-0h4~-||


Riff H
  Gtr.1                                                 (1x)
||--------------------------------|-------------------------||
||--------------------------------|-------------------------||
||--------------------------------|-------------------------||
||--------------------------------|------3-4\33-2-3-5-------||
||-/5---4-------------------------|-/5-54--2\11-0-1-3-001---||
||----87--0h1h30h1h4-431-1p0-0-00-|-------------------001---||


Riff I
  Gtr.1                          1.  2.
||--------------------------|------|---||
||--------------------------|-----.|---||
||--------------------------|------|---||
||--------------------------|-----.|---||
||--------------------------|------|-4-||
||-6~0437~0875~0643164316431|-643~-|-4-||


Riff H1
  Gtr.1                                               (1x)
||-----------------------------|-------------------------||
||-----------------------------|-------------------------|| * 1-1, not 11
||-----------------------------|-------------------------||
||-------*---------------------|------3-4\33-2-3-5-------||
||-/5-4\110123-415~4\1-541-1p0-|-/5-54--2\11-0-1-3-001---||
||--------0123-415~4\1-541-1p0-|-------------------001---||


Riff J
  Gtr.1
||---------|--------------------------------------------------------------||
||---------|--------------------------------------------------------------||
||---------|--------------------------------------------------------------||
||---------|8p0-7-4p1---------------------5p4-----------------------------||
||---------|-----7---6p3-------------6p5p3---6p5p3-----5p3-6p3-3h5--------||
||-000-000-|------------000-000-80754-------------8p7p5---0---0---000-000-||

Riff J (Cont.)
  Gtr.1           (1x)
||-------------------||
||-------------------||
||-------------------||
||-------------------||
||-----------1p0--1~-||
||-887554-0h1---541~-||


Riff K
  Gtr.1                                                             (1x)
||---------------------------------------------------------------------||
||---------------------------------------------------------------------||
||---------------------------------------------------------------------||
||------------------------------------------------------2--2h3p2-------||
||-------1-3-4-3-1-------1-3-4-1---------1-3-4-3-1---1----------473~---||
||-343131-3-3-3-3-1343131-3-3-3-101343131-3-3-3-3-014-34-22------------||

Riff J 1x (Without 1st section)

Riff K 1x

Riff L
  Gtr.1                                           (2x)
||----------------------------------------------------||
||----------------------------------------------------||
||----------------------------------------------------||
||------------4--------------------4------------------||
||-6-666-3-555-5--------6-666-3-555-5-6p0h3h5-1-------||
||--------------55114400-----------------------5p4p1--||


Riff M
  Gtr.1
||-----------------------------------------------||
||-----------------------------------------------||
||-----------------------------------------------||
||------------4-5-7-8754------------4-5p4--------||
||-6-666-3-555-5-5-5-----6-666-3-555-5---6p5-----||
||------------------------------------------6101-||


Riff M (Cont.)
  Gtr.1                                     (1x)
||----------------------------------------------||
||----------------------------------------------||
||----------------------------------------------||
||------------4-5-7-8754------------4-----------||
||-6-666-3-555-5-5-5-----6-666-3-555-5-0-1--0-1-||
||-------------------------------------0-1--0-1-||


Fill 1
  Gtr.1
||-----------------------||
||-----------------------||
||-----------------------||
||-----------------------||
||-66663355--------------||
||---------000-000---000-||


Riff N
  Gtr.1                                       1.                  2.  (2x)
||---|--------------|---------------------------|------------------------||
||---|--------------|--------------------------.|-----------------------.||
||---|--------------|---------------------------|------------------------||
||---|-----------5-4|-7h8----------------------.|-----------------------.||
||---|356--569-0--6-|----6p5-------------5~-----|-365--------0h1-0h1/4\1-||
||-0-|---00----0----|-------000-000-0h5h6--6p5p0|----000-000-0h1-0h1/4\1-||


Fill 2
  Gtr.1
||-----||
||-----||
||-----||
||-----||
||-0---||
||-0---||

Riff D 2x

Riff N 1x

Riff E 1x

Riff E1
  Gtr.1                                    1.                   2. (1x)
||-----------------|-------------------------|------------------------||
||-----------------|------------------------.|------------------------||
||-----------------|-------------------------|------------------------||
||-----------------|------------------------.|------------------------||
||-66663355--------|666633-------------------|6666-----6-0------------||
||---------00000000|------44-000-000-000-000-|----0h1h4--0------------||

Acoustic Ending
  Gtr.1                           (1x)
||-----------------------------------||
||-----------------------------------||
||---4-5-4-2---4-5-------------------||
||---------2---------0---0---2-3-----||
||-0-------0-0-----0---3---------1---||
||-----------------------------------||

            
            
Suggest correction
Creating personal tab
Creating personal tab
You can edit any tab online and save it as your Personal.

You can edit, replace or remove any tab part or add personal notes – all changes will be seen only by you.

Personal tabs can be accessed anytime from any device, even offline.
Learn more »
Give kudos to tab author, rate the tab!
1 2 3 4 5
comments
print report bad tab
guest
You may want to rate the tab now too:
select rating
Wanna post a correction for this tab? Suggest correction