Oops, an error
Loading. Please wait.

Of Dull Eyes Borne tab

version 1
version 1

Whole song

436 views 1 this week
no commentswrite comment
1 2 3 4 5
1 last vote to show rating
add to favorites
×
Save as Personal and add changes to this tab that will be seen only by you. Learn more ›
×
You can save this tab as Personal to edit and correct it or add notes. All changes will be seen only by you. Learn more »
launch autoscroll
font size
0
reset
how to read this tab
guitar tuner
edit
Autoscroll
slow
fast
+/-
esc
set tempo
stop
Psycroptic - 'Of Dull Eyes Borne'
The Isle Of Disenchantment (2001)
Self Released
tabbed by general maxx
________________________________________________________________________________

Dropped C# Tuning (C#,G#,C#,F#,A#,D#)


 Riff A                                              _________________  ______
   Gtr. 1                                           |               1. |    2.
||-------------------------------------------------|------------------|------|
||-------------------------------------------------|-----------------.|------|
||-------------------------------------------------|------------------|------|
||-------------------------------------------------|-8888----7777----.|-8--7-|
||-5555----555566665555----5555----5555----55556666|-----6666----5555-|--55--|
||-----0000------------0000----6666----0000--------|-----------------|-----6-|


 Riff A1                     _________________  _________________________
   Gtr. 1                   |              1.  |                       2.
||-------------------------|------------------|---------------------------||
||-------------------------|-----------------.|---------------------------||
||-------------------------|------------------|---------------------------||
||-7---7/8\7---7---7---7-8-|-8888----7777----.|-8888----7777-----5--------||
||-5---5/6\5---5---5---5-6-|-----6666----5555-|-----6666----5555---3-0-3~-||
||---0-------0---6---0-----|------------------|------------------------3~-||

 Riff B                                                ___  ___
   Gtr. 1                                             | 1. | 2.
||---------------------------------------------------|----|----||
||---------------------------------------------------|---.|----||
||---------------------------------------------------|----|----||
||-----------------------5---------------------------|---.|----||
||------------------4~1---3--------------------------|-3--|-1--||
||-444444445p44444444~-43--3~-444444445p44444448p47p4|-3--|-1--||


 Riff A1 1x

 Riff B  2x


 Fill 1
   Gtr. 1
||--------||
||--------||
||--------||
||-3~-----||
||-5~-----||
||--------||


 Riff C
   Gtr. 1
||-------------------------------------------------|
||-------------------------------------------------|
||-------------------------------------------------|
||-----------------------------5---------5-7-------|
||---5-8---5-8---3-7---3-7---8-----8-5---------8-5-|
||-0-----0-----0-----0-----0-----0-----0-----0-----|

 Riff C (Cont.)
   Gtr. 1                                     (1x)
||------------------------------------------------||
||-----------------------------------------------.||
||------------------------------------------------||
||------8------8------7------7-----5-----5-3~----.||
||-----------------------------------------5~--0--||
||-8-12---8-12---7-10---7-10---5-7---5h7-------0--||
||                                                ||
|| Gtr. 2                                         ||
||------------------------------------------------||
||-----------------------------------------------.||
||------------------------------------------------||
||---------------------------------------5-3~----.||
||-8-------------7-------------5-----------5~--0--||
||-8-------------7-------------5-----5h7-------0--||


 Riff D
   Gtr. 1
||-------------------------------------------------|
||-------------------------------------------------|
||-------------------------------------------------|
||-3-----3-----2-----2-----5-----2-----7-----3-----|
||-5-----5-----3-----3-----7-----3-----8-----5-----|
||---0-0---0-0---0-0---0-0---0-0---0-0---0-0---0-0-|

 Riff D (Cont.)
   Gtr. 1                                     (1x)
||------------------------------------------------||
||------------------------------------------------||
||------------------------------------------------||
||--8------8-----7-----7-----5----------3~--------||
||-10-----10-----8-----8-----7--------5-5~--0---0-||
||----8-8----8-8---7-7---7-7---5-5-0h5------0---0-||

 Riff E
   Gtr. 1
||------------------------------------------------------------------|
||------------------------------------------------------------------|
||------------------------------------------------------------------|
||-7----6----5----------3----2--------------7----6------------------|
||-5555545555355555555551555505555------5---55555455553h55555555555-|
||--------------------------------6-6666-66-------------------------|

 Riff E (Cont.)_________   ____________________
   Gtr. 1     |       1.  |                   2.
||----------------------|----------------------||
||---------------------.|----------------------||
||----------------------|----------------------||
||------------5-6p5-5--.|------------5-6p5565--||
||-5h6p5-5-569-5---9-96-|-5h6p5-5-569-5------8-||
||------8-7-------------|------8-7-------------||

 Riff F                     ________________  _______________________
   Gtr. 1                  |           1,3.  |                   2,4.
||------------------------|-----------------|-------------------------||
||------------------------|----------------.|------------------------.||
||--------------8---------|-----------------|-------------------------||
||-5555556p55555-5555556\-|----------------.|-------------56p59p56p5-.||
||---------------------6\-|-5--6--3--1-1-3--|-5h6p5-5-5689------------||
||------------------------|-5--6--3--1-1-3--|------8-7----------------||

 Riff G
   Gtr. 1                                 (2x)
||--------------------------------------------||
||-------------------------------------------.||
||--------------------------------------------||
||------------5-6p5565-------------5-6p5565--.||
||-5h6p5-5-569-5------8-5h6p5-5-569-5------8--||
||------8-7------------------8-7--------------||


 Riff H
   Gtr. 1                           (2x)
||--------------------------------------||
||--------------------------------------||
||--------------------------------------||
||------5--5h6p5-5--------5--5h6p5-5----||
||-5h6h9-69-----9-96-5h6h9-69-----9-96--||
||--------------------------------------||
   |___||_||___||__| |___||_||___||__|


 Riff G 2x

 Riff H 2x


 Riff A2
   Gtr. 1
||-------------------------|------------------||
||-------------------------|-----------------.||
||-------------------------|------------------||
||-7---7-8-7---7---7-7-7-8-|-8888----7777----.||
||-5---5-6-5---5---5-5-5-6-|-----6666----5555-||
||---0-------0---6---------|------------------||


 Riff A3
   Gtr. 1
||---------------------------------------------------------||
||---------------------------------------------------------||
||---------------------------------------------------------||
||--------------------------------------------------8--7---||
||-5555----555566665555----5555----5555----55556666--55-6~-||
||-----0000------------0000----6666----0000-------------6~-||


 Riff A 1x


 Riff I
   Gtr. 1
|----------------------------------------------------------------------------|
|----------------------------------------------------------------------------|
|-----------------------------------------------------------------5555-------|
|-----------------------------6666----5555-----------------------------------|
|-------------------88885555----7777----6666----8888--------5555----88885555-|
|-000-000-000-000-000-------------------------000-----88885555---------------|

 Riff I (Cont.)
   Gtr. 1
|---------------------------------------------------------|
|---------------------------------------------------------|
|---------------------------------------------------------|
|---------6666----5555---------------------------------7~-|
|-88885555----7777----6666-------0-3-2-0-8-5-0-9-8-0-4-5~-|
|--------------------------0-2-3--------------------------|

Riff I (Cont.)
   Gtr. 1
|------------------------------------------------------|
|-----------------------------------------------------.|
|-------------------------------------------------5-7~-|
|-------------6666----5555----------------------------.|
|-----88885555----7777----6666----8888--------5555-5---|
|-000-------------------------000-----88885555---------|

 Riff I (Cont.)
   Gtr. 1                                               (1x)
|------------------------------------------------------------||
|------------------------------------------------------------||
|------------------------------------------------------------||
|-------------6666----5555--------------------------------7~-||
|-----88885555----7777----6666------0-3-2-0-8-5-0-9-8-0-4-5~-||
|-000-------------------------0-2-3--------------------------||

 Riff J
   Gtr. 1
||-----------------------------------------------------|
||-----------------------------------------------------|
||-----------------------------------------9--8--------|
||-6------7------9------10-9-6------7------7--6--10-6--|
||-4444444544444474444448--7-44444445444444------8--7--|
||-----------------------------------------------------|

 Riff J (Cont.)
   Gtr. 1
|------------------------|-------------------------------------------------|
|------------------------|-------------------------------------------------|
|------------------------|-------------------------------------9\8---------|
|-6-----7---6/-10-9-7-6--|-6-----7\6---9\7---------------7\6---7\6---------|
|-44444454444/-8--7-5-4--|-4-4-4-5\4-4-7\5-4-8\7-5-4-4-4-5\4-0-----0-8-7-5-|
|----------------0-0-6-5-|-------------------------------------------------|

 Riff J
   Gtr. 1                                     (1x)
|-------------------------------------------------||
|-------------------------------------------------||
|-------------------------------------------------||
|-6-----7\6---9\7---------------7\6---------------||
|-4-4-4-5\4-4-7\5-4-8\7-5-4-4-4-5\4-0-------3h5---||
|-------------------------------------8p7-0-3h5-0-||


 Riff I 1x

 Riff J 1x


 Riff K
   Gtr. 1                             (1x)
||----------------------------------------||
||----------------------------------------||
||----------------------------------------||
||----------------------------------------||
||-0-2~-0-2h3p0-------0-2~-0-2h3-0-3~--5~-||
||-0-2~-0-2h3p0-------0-2~-0-2h3-0-5~--7~-||

 Riff L
   Gtr. 1
||---------------------------------------------------|
||---------------------------------------------------|
||---------------------------------------------------|
||---------------------------------------------------|
||-\0-0---0-0------555555553/555555588557755-8-5-7-3-|
||-\0-0---0-0----------------------------------------|

 Riff L (Cont.)
   Gtr. 1                                     (2x)
||-------------------------------------------------||
||------------------------------------------------.||
||---------------------------------7---5---8---7~--||
||----------------------------------000-000-000---.||
||-0-0---0-0------555555553/5555~------------------||
||-0-0---0-0---------------------------------------||

 Riff M
   Gtr. 1                                                      (4x)
||-----------------------------------------------------------------||
||----------------------------------------------------------------.||
||-----------------------------------------------------------------||
||------------------------------------------------------------7\6-.||
||---------5-------4---8\7/8---7\4~-----5---4-8\7/8---7---6---5\4--||
||-0-0-0-0---0-0-0---0-------0------0-0---0---------0---0---0------||

 Riff N
   Gtr. 1
||----------------------------------------------------------|
||----------------------------------------------------------|
||----------------------------------------------------------|
||----------------------------------------------------------|
||-0~--------8---7---6---5\4-0--0-1~--------8---7---6---5\4-|
||-0~----------0---0---0-----0--0-1~----------0---0---0-----|

 Riff N (Cont.)
   Gtr. 1                                           (1x)
|------------------------------------------------------||
|------------------------------------------------------||
|------------------------------------------------------||
|------------------------------------------------------||
|-0~--------8---7---6---5\4-0--0-1~-----5-5-5-5-4---4\-||
|-0~----------0---0---0-----0--0-1~-----5-5-5-5-4---4\-||

 Riff E1
   Gtr. 1
||-----------------------------------------------------------------------|
||-----------------------------------------------------------------------|
||-----------------------------------------------------------------------|
||-7----6----5----------3----2---------------7----6----------------------|
||-5555545555355555555551555505555-------5---55555455553h555555555555555-|
||--------------------------------6-66666-66-----------------------------|
                                    |_||___|
 Riff E1 Cont,)
   Gtr. 1           (2x)
|-----------------------||
|----------------------.||
|-----------------------||
|------------7-6-7-6---.||
|-4-444-4-444-4-4-4-4p0-||
|-----------------------||


 Riff F1                    ________________  _______________________
   Gtr. 1                  |           1,3.  |                  2,4.
||------------------------|-----------------|-----------------------||
||------------------------|----------------.|----------------------.||
||--------------8---------|-----------------|-----------------------||
||-5555556p55555-5555556\-|----------------.|--------------------4-.||
||---------------------6\-|-5--6--3--1-1-3--|------------------4----||
||------------------------|-5--6--3--1-1-3--|-5-555-5-555-4-444-4---||

            
            
Suggest correction
Creating personal tab
Creating personal tab
You can edit any tab online and save it as your Personal.

You can edit, replace or remove any tab part or add personal notes – all changes will be seen only by you.

Personal tabs can be accessed anytime from any device, even offline.
Learn more »
Give kudos to tab author, rate the tab!
1 2 3 4 5
comments
print report bad tab
guest
You may want to rate the tab now too:
select rating
Wanna post a correction for this tab? Suggest correction