Oops, an error
Loading. Please wait.

The Suit bass

1,537 views 1 this week
3 commentsread comments
1 2 3 4 5
x 3
add to favorites
×
Save as Personal and add changes to this tab that will be seen only by you. Learn more ›
×
You can save this tab as Personal to edit and correct it or add notes. All changes will be seen only by you. Learn more »
launch autoscroll
font size
0
reset
guitar tuner
edit
Autoscroll
slow
fast
+/-
esc
set tempo
stop
PUBLIC IMAGE LIMITED
THE SUIT - METAL BOX, 1979

JAH WOBBLE...

E ----------------------------------------------------------------|
A -------0-0-0-3----0-333-222-00------0-0-0-3----0-333-222-00-----|
D ----------------------------------------------------------------|
G ---------------5(slap)-----------------------5(slap)------------|

for all the song...


beautiful bass line...
see also--> JAH WOBBLE's BLUEBERRY HILL (BETRAYAL 1980)

            
            
Suggest correction
Creating personal tab
Creating personal tab
You can edit any tab online and save it as your Personal.

You can edit, replace or remove any tab part or add personal notes – all changes will be seen only by you.

Personal tabs can be accessed anytime from any device, even offline.
Learn more »
Give kudos to tab author, rate the tab!
1 2 3 4 5
comments
print report bad tab
3 comments total.
0 reply
swave75 382 Jul 07, 2011 06:21 PM

Great great tab!!!

0 reply
IvanRamone 70 Oct 13, 2014 08:20 AM

Not accurate

0 reply
protitht 11 May 25, 2017 11:25 AM

I play this, I think it's correct:

G|------------------------------------------------------------|
D|------------8-----------------------------------------------|
A|------------------------------------------------------------|
E|-4-4-4-6---------6/9-9-9-9-8-8-8-6--6-----------------------|

G|------------------------------------------------------------|
D|---6--------8-----------------------------------------------|
A|------------------------------------------------------------|
E|-4---4-6---------6/9-9-9-9-8-8-8-6--6-----------------------|

I just pop the A# on D because I'm bad at slapping :/

guest
You may want to rate the tab now too:
select rating
Wanna post a correction for this tab? Suggest correction