Oops, an error
Loading. Please wait.
We have an official Psycho tab made by UG professional guitarists. Check out the tab »
×
6,001 views 1 this week
2 commentsread comments
1 2 3 4 5
x 3
add to favorites
×
Save as Personal and add changes to this tab that will be seen only by you. Learn more ›
×
You can save this tab as Personal to edit and correct it or add notes. All changes will be seen only by you. Learn more »
launch autoscroll
font size
0
reset
guitar tuner
backing track
0:00
0:00
edit
Autoscroll
slow
fast
+/-
esc
set tempo
stop
Author
Puddle of Mudd - Psycho
Tabbed by cyberx
E-Mail: renato_goncalves16@hotmail.com
Tuning: Standard [E A D G]

[Verse]

|-------------------------------------------|
|------3------------------------------------|
|----------3------------4---4--4------------|
|--4-----------5-5-5-5------------2-2-2-2-4-|

|-------------------------------------------|
|------5-3----------------------------------|
|----------4-3-3-----4----4--4--------------|
|----------------4-4-----------2-2-2-2------|


|-----10----10-----10----11-------------------|
|--8------8------8-----9------6---6---6----8--|
|----------------------------4---4---4---6----|	x2
|---------------------------------------------|

|----------------------------------------------------------|
|----------------------------------------------------------|
|--1--1---1-1--1--1-1-1-3-3-3-3-4--4--4-4-4--4-4-4-6-6-6-6-|
|----------------------------------------------------------|


[Chorus]

|------------------------------------------------------------------|
|------------------------------------------------------------------|
|------------------------------------------------------------------|	x2
|--4-4-4-4-4-4-4-4-4-4-4-4-4-5-5-5-0-0-0-0-0-0-0-0-0-0-0-0-0-2-2-2-|



[Verse 2]

|-----10----10-----10----11-------------------|
|--8------8------8-----9------6---6---6----8--|
|----------------------------4---4---4---6----|
|---------------------------------------------|


|-----10----10-----10----11----------------------------|
|--8------8------8-----9------6---6---6----------------|
|----------------------------4---4---4-----------------|
|----------------------------------------0-1-2-0-1-0-4-|


|-----10----10-----10----11-------------------|
|--8------8------8-----9------6---6---6----8--|
|----------------------------4---4---4---6----|
|---------------------------------------------|

|-----10----10-----10----11----------------------------|
|--8------8------8-----9-------------------------------|
|---------------------------4--4--4-4-4--4-4-4-6-6-6-6-|
|------------------------------------------------------|


[Chorus]



[Chorus 2 - 2nd Half] X3

|----------------------------------------------------------------------|
|----------------------------------------------------------------------|
|----------------------------------------------------------------------|
|----4-4-4-4-4-4-4-4-4-4-4-4-4-4-4---9-9-9-9-9-9-9-9---7-7-7-7-7-7-7-7-|



[Verse 3]

|-----10----10-----10----11-------------------|
|--8------8------8-----9------6---6---6----8--|
|----------------------------4---4---4---6----| X2
|---------------------------------------------|


[Chorus] X4


[Chorus 3 - 2nd Half]

|---------------------------------------------------------------------------------|
|---------------------------------------------------------------------------------|
|---------------------------------------------------------------------------------|
|--3-3-4-4-4-3-4-4-4-3-4-3-4-3---7-7-7-7---3-3-4-4-4-3-4-4-4-3-4-3-4-3---0--------|

            
            
Suggest correction
Creating personal tab
Creating personal tab
You can edit any tab online and save it as your Personal.

You can edit, replace or remove any tab part or add personal notes – all changes will be seen only by you.

Personal tabs can be accessed anytime from any device, even offline.
Learn more »
Give kudos to tab author, rate the tab!
1 2 3 4 5
comments
print report bad tab
2 comments total.
+1 reply
cyberx 70 Mar 10, 2009 08:27 PM

The tuning is in [Db A D G]. I made a mistake :X

0 reply
lowendbend 10 Mar 23, 2013 03:29 PM

Ive played this before and all the strings are tuned down a half step, then the low string is dropped...

guest
You may want to rate the tab now too:
select rating
Wanna post a correction for this tab? Suggest correction