Oops, an error
Loading. Please wait.
We have an official Psycho tab made by UG professional guitarists. Check out the tab »
×
104,995 views 36 this week
22 commentsread comments
1 2 3 4 5
x 45
add to favorites
×
Save as Personal and add changes to this tab that will be seen only by you. Learn more ›
×
You can save this tab as Personal to edit and correct it or add notes. All changes will be seen only by you. Learn more »
launch autoscroll
font size
0
reset
how to read this tab
guitar tuner
backing track
0:00
0:00
edit
Autoscroll
slow
fast
+/-
esc
set tempo
stop
Author
Unregistered
PSYCHO - Puddle of Mudd
Tabbed by:Dan Slindee
Tuning:Drop Db (Db Ab Db Gb Bb Eb)

[Intro/Verse]
(Reverb w/Light Distortion)
Eb|--------------------------------------------|
Bb|------11---11---11----12---7---7---7---9----|
Gb|------11---11---11----12---7---7---7---9----|Repeat
Db|--------------------------------------------|
Ab|----9----9----9----10----5---5---5---7------|
Db|--------------------------------------------|

[Pre Chorus]
Eb|---------------------------------------|
Bb|-----4---4---4---6---7---7---7---------|
Gb|-----4---4---4---6---7---7---7-9999----|
Db|-------------------------------9999----|
Ab|---2---2---2---4---5---5---5---7777----|
Db|---------------------------------------|

[Chorus]
(Heavy Distortion)
Eb|-------------------------------------|
Bb|-------------------------------------|
Gb|---(6666)---(6669)-(2222)---(4444)---|
Db|----4444-----4447---0000-----2222----|Repeat
Ab|----4444-X3--4447---0000-X3--2222----|
Db|----4444-----4447---0000-----2222----|

2nd Half of Chorus 2
Eb|---------------------------------|
Bb|---------------------------------|
Gb|-------------4444-----2222-------|
Db|----4444-----4444-X2--2222-X2----|Repeat
Ab|----4444-X4--2222-----0000-------|
Db|----4444-------------------------|

[Outro]
Eb|--------------------------------------------------------|
Bb|--------------------------------------------------------|
Gb|--------------------------------------------------------|
Db|----2-44-2-44-2-44-2-44--7777--2-44-2-44-2-44-2444-0~~~~|
Ab|----2-44-2-44-2-44-2-44--7777--2-44-2-44-2-44-2444-0~~~~|
Db|----2-44-2-44-2-44-2-44--7777--2-44-2-44-2-44-2444-0~~~~|

Listen to song for organization

************************************

| b    Bend
| (n)  Ghost note
| ~    Vibrato

************************************

            
            
Suggest correction
Creating personal tab
Creating personal tab
You can edit any tab online and save it as your Personal.

You can edit, replace or remove any tab part or add personal notes – all changes will be seen only by you.

Personal tabs can be accessed anytime from any device, even offline.
Learn more »
comments
print report bad tab
22 comments total. Showing first comments.
0 reply
laxkid2 10 Nov 04, 2007 04:43 PM

this song rocks, and is constantly stuck in my head. i think the tab is decent, but needs a little correcting.

0 reply
MoshPitRock 10 Nov 05, 2007 04:24 AM

good tab. this is a great song. :)

0 reply
iGuitarist 10 Nov 25, 2007 11:01 AM

hey im pretty sure the it is
---10--- -------
---10--- ---11--
---10---
---11--
-------- -------
-8------ -9-----
-------- instead of-------

guest
Wanna post a correction for this tab? Suggest correction