Oops, an error
Loading. Please wait.
We have an official She Hates Me tab made by UG professional guitarists. Check out the tab »
×
31,920 views 18 this week
11 commentsread comments
1 2 3 4 5
x 26
add to favorites
×
Save as Personal and add changes to this tab that will be seen only by you. Learn more ›
×
You can save this tab as Personal to edit and correct it or add notes. All changes will be seen only by you. Learn more »
launch autoscroll
font size
0
reset
guitar tuner
backing track
0:00
0:00
edit
Autoscroll
slow
fast
+/-
esc
set tempo
stop
no bass in intro but starts half way through verse, it starts after
"then it all came unglued"

 do this for first verse
G|-----------------|
D|-----------------|
A|----00----22(22)-|
E|-00----22--------|

 then this for chorus and rest of song
G|----------------------|
D|----------------------|
A|------0000------2-222-|
E|-0000------2222-------|

 then go back to
G|-----------------|
D|-----------------|
A|----00----22(22)-|
E|-00----22--------|
for the last verse

 Then this for chorus
G|----------------------|
D|----------------------|
A|------0000------2-222-|
E|-0000------2222-------|

            
            
Suggest correction
Creating personal tab
Creating personal tab
You can edit any tab online and save it as your Personal.

You can edit, replace or remove any tab part or add personal notes – all changes will be seen only by you.

Personal tabs can be accessed anytime from any device, even offline.
Learn more »
comments
print report bad tab
11 comments total. Showing first comments.
-1 reply
123456 10 Jan 10, 2003 07:00 PM

-------------------------------
-------------------------------
------2222---------------------
-2222------4444--9-999---------

0 reply
sum41_chick 170 Feb 04, 2003 07:00 PM

thansk for the correction they probably sounds good both ways

-1 reply
saturns_bassman 789 Aug 13, 2004 08:00 PM

UG Stranger you like your moms ass so what you talking about a dumb ***!!

guest
You may want to rate the tab now too:
select rating
Wanna post a correction for this tab? Suggest correction