Oops, an error
Loading. Please wait.
3,393 views 1 this week
4 commentsread comments
1 2 3 4 5
x 5
add to favorites
×
Save as Personal and add changes to this tab that will be seen only by you. Learn more ›
×
You can save this tab as Personal to edit and correct it or add notes. All changes will be seen only by you. Learn more »
launch autoscroll
font size
0
reset
how to read this tab
guitar tuner
backing track
0:00
0:00
edit
Autoscroll
slow
fast
+/-
esc
set tempo
stop
INTRO:
e|----------------------------------------|
B|----------------------------------------|
G|----------------------------------------| 2x
D|---------------3-------------------5----|
A|------3-----1----------5-----3--3-------|
E|---1-----0-------0--3-----0-----------0-|

PRE VERSE:
"I met a girl............"
e|----------------------------------------|
B|----------------------------------------|
G|----------------------------------------|
D|---------------3-------------------5----| 11x
A|------3-----1----------5-----3--3-------|
E|---1-----0-------0--3-----0-----------0-|

e|-----------------------------------------|
B|-----------------------------------------|
G|-------------3-3-3-------------5-5-5-----|4x
D|--3-3-3------3-3-3-----5-5-----5-5-5-----|
A|--3-3-3---0--1-1-1--0--5-5--0--3-3-3--0--|
E|--1-1-1---0---------0--3-3--0---------0--|
               Palm Mute

VERSE:
"In a trap......................."
e|-----------------------------------------|
B|-----------------------------------------|
G|-------------3-3-3-------------5-5-5-----| 8x
D|--3-3-3------3-3-3-----5-5-----5-5-5-----|
A|--3-3-3---0--1-1-1--0--5-5--0--3-3-3--0--|
E|--1-1-1---0---------0--3-3--0---------0--|

(SOLO)

PRE VERSE 2:
"Thats my story....................."
e|----------------------------------------|     
B|----------------------------------------|     
G|----------------------------------------| 3x
D|---------------3-------------------5----|     
A|------3-----1----------5-----3--3-------|     
E|---1-----0-------0--3-----0-----------0-|     

e|-----------------------------------|
B|-----------------------------------|
G|-----------------------------------|
D|--3-3-3-3-3-3-3-3-3-3-3-3-3-3-3-3--|
A|--3-3-3-3-3-3-3-3-3-3-3-3-3-3-3-3--|
E|--1-1-1-1-1-1-1-1-1-1-1-1-1-1-1-1--|


VERSE:
"She f****** hates me..........."
e|-----------------------------------------|
B|-----------------------------------------|
G|-------------3-3-3-------------5-5-5-----| 8x
D|--3-3-3------3-3-3-----5-5-----5-5-5-----|
A|--3-3-3---0--1-1-1--0--5-5--0--3-3-3--0--|
E|--1-1-1---0---------0--3-3--0---------0--|

e|--------|
B|--------|
G|--------|
D|--3--3--|
A|--3--3--|
E|--1--1--|

OUTRO:
e|-----------------------------------------|
B|-----------------------------------------|
G|-------------3-3-3-------------5-5-5-----| 6x(fade out)
D|--3-3-3------3-3-3-----5-5-----5-5-5-----|
A|--3-3-3---0--1-1-1--0--5-5--0--3-3-3--0--|
E|--1-1-1---0---------0--3-3--0---------0--|


This is my first tab, but I saw Puddle of Mudd play this on "TRL", and I am
absolutly positive that this tab is right.Hope ya like it.It's probably one of
the funnest, and easiest song to play. Rock on!
-Chad Koza (a.k.a "Choad")

            
            
Suggest correction
Creating personal tab
Creating personal tab
You can edit any tab online and save it as your Personal.

You can edit, replace or remove any tab part or add personal notes – all changes will be seen only by you.

Personal tabs can be accessed anytime from any device, even offline.
Learn more »
comments
print report bad tab
4 comments total. Showing first comments.
0 reply
punkrockrules06 0 Dec 21, 2002 07:00 PM

hey,this tab is almost correct, check this out
this is the intro
--------------------------------------
--------------------------------------
-----------3---------------------------
---3--------------5--------5-----------
-----0--1-----------0-3-3------------------1-----------0--3-------------------

the next part is correct but you left out the solo,
---------------------------------------
5-5-5-5--10-10-10-10--7-7-7-12-12-12---
---------------------------------------
---------------------------------------
---------------------------------------
---------------------------------------
and then u just keep repeating the first part, other than that it is correct, later

0 reply
JabAFCB 31 Dec 25, 2002 07:00 PM

The song has a solo and this is it,

e.--------------------------------
b.--------------------------------
g.--------------------------------
D.---0-0-0-5-5-5-5-0-2-5-2-5------
A.--------------------------------
E.--------------------------------

OK! Rock on. James Bissell-

0 reply
guitarman1507 81 Jan 23, 2005 07:00 PM

lol You Are ALL WRONG!!!! Ill put up the right tab later today.

guest
Wanna post a correction for this tab? Suggest correction