Oops, an error
Loading. Please wait.

Mentiras tab

by Puerco
45 views 1 this week
no commentswrite comment
1 2 3 4 5
3 more votes to show rating
add to favorites
×
Save as Personal and add changes to this tab that will be seen only by you. Learn more ›
×
You can save this tab as Personal to edit and correct it or add notes. All changes will be seen only by you. Learn more »
launch autoscroll
font size
0
reset
how to read this tab
guitar tuner
edit
Autoscroll
slow
fast
+/-
esc
set tempo
stop

E5                     B5
cuando creces con muchas mentiras
C#5              A5           B5
pronto  te das cuenta de que no
E5               B5               C#5
de  que no vale nada la vida
A5             B5
de lo que piensas


       RIFF 2

e-------------------------------------------+
B-------------------------------------------+
G-----9---99---9888--8-666-----9-8-4-6------+
D-------------------------------------------+
A-------------------------------------------+
E-------------------------------------------+


         RIFF 2

de todas maneras nos vamos a ir sin nada

de todas maneras nos vamos a ir sin nada

porque no!


RIFF 2

      F#-F                               A#
e-----------------------------------------------+
B-----------------------------------------------+
G-----------------------------------------------+
D-----4--3-----4--3-----4-3-----4-3------3------+
A-----4--3-----4--3-----4-3-----4-3------1------+
E-----2--1-----2--1-----2-1-----2-1-------------+


F#5                             A#5
dime lo que piensas del cielo

                              D#5                  C#5 - B5
dime de tu dios cada vez  que eschas las mentiras

B5
que tan grande es tu odio

F#5                          A#5
hasta donde vamos  a llegar

                            D#5            C#5 - B5
creyendo toda la mierda que dicen y dicen

B5
y nosotros felices


SOLO--

    F#
e------------------------------+
B------------------------------+
G------------------------------+
D------------10--8--7----------+
A---88888----------------8-----*
E------------------------------+

     A#
e------------------------------------------+
B------------------------------------------+
G------------------------------------------+
D---------------------15--13--12-----------+
A----13-13-13-13-13--------------13--------*
E------------------------------------------+

     D#
e--------------------------+
B--------------------------+
G--------------------------+
D--------------8-6-5-------+
A----6-6-6-6-6-------6-----*
E--------------------------


   B
e--------------------------+
B--------------------------+
G--------------------------+
D-----------4--------------+
A---2222----2--------------*
E--------------------------+


E5                       B5
cuantas veces en una cama

 C#5                A5     B5
en una cama de hospital

E5                 B5      C#5        A5
todas tus oraciones  no sirvieron para nada

E5                 B5      C#5        A5
todas tus oraciones no sirvieron para nada


RIFF 2

            
            
Suggest correction
Creating personal tab
Creating personal tab
You can edit any tab online and save it as your Personal.

You can edit, replace or remove any tab part or add personal notes – all changes will be seen only by you.

Personal tabs can be accessed anytime from any device, even offline.
Learn more »
Give kudos to tab author, rate the tab!
1 2 3 4 5
comments
print report bad tab
guest
Wanna post a correction for this tab? Suggest correction