Oops, an error
Loading. Please wait.

A Traves De Ti bass

14 views 1 this week
no commentswrite comment
1 2 3 4 5
3 more votes to show rating
add to favorites
×
Save as Personal and add changes to this tab that will be seen only by you. Learn more ›
×
You can save this tab as Personal to edit and correct it or add notes. All changes will be seen only by you. Learn more »
launch autoscroll
font size
0
reset
guitar tuner
edit
Autoscroll
slow
fast
+/-
esc
set tempo
stop
:Intro 1:(Voz y Piano)
:Intro 2:

G] :----------------:---------------:----------------:------------:------------:
D] :----------------:---------------:----------------:------------:------------:
A] :-------------2--:---------------:----------------:2----------2:------------:
E] :------0-2-4-----:5----5-5-------:2----2-2--------:------2-0---:------------:
B] :----------------:---------------:----------------:------------:3--------3-3:

G] :-------------:--------------:--------------:--------------:-------------:
D] :-------------:--------------:--------------:--------------:2------------:
A] :-------------:--------------:2----2-2------:--------------:------------2:
E] :5----5-5-----:2----2-2------:--------------:0----0-0------:------0-2-4--:
B] :-------------:--------------:--------------:--------------:-------------:


:Estrofa 1:

Hoy me estaba acordando ...

G] :-------------:------------:--------------:--------------:
D] :-------------:------------:---------4----:--------------:
A] :-------------:-------4--3-:2-------------:---------2----:
E] :5------0-----:5-----------:--------------:0-------------:
B] :-------------:------------:--------------:--------------:

Eran dias amargos ...

G] :-------------:------------:--------------:--------------:
D] :-------------:------------:--------------:--------------:
A] :2------------:-------2----:---------7----:--------------:
E] :-------2-----:0-----------:5-------------:5----------5-3:
B] :-------------:------------:--------------:--------------:

Fue cuando no encontraba ...

G] :-------------:------------:--------------:--------------:
D] :-------------:------------:--------------:---------7----:
A] :-------4-----:--------4---:2-------------:5-------------:
E] :2------------:2-----------:----------2---:--------------:
B] :-------------:------------:--------------:--------------:

y todo lo que ...

G] :-------------:------------:--------------:--------------:
D] :-------------:------------:--------------:2-------------:
A] :-------------:-------4----:2----------4-5:--------------:
E] :5---------0-1:2-----------:--------------:--------------:
B] :-------------:------------:--------------:--------------:


:Estrofa 2:

Fue pasando el tiempo ...

G] :-------------:------------:--------------:--------------:
D] :-------------:------------:---------4----:--------------:
A] :-------7-----:-------4--3-:2-------------:---------2----:
E] :5------------:5-----------:--------------:0-------------:
B] :-------------:------------:--------------:--------------:

solo no podia en ...

G] :-------------:------------:--------------:--------------:
D] :-------------:------------:--------------:--------------:
A] :2------------:-------2----:---------7----:--------------:
E] :-------2-----:0-----------:5-------------:5----------5-3:
B] :-------------:------------:--------------:--------------:

Arrepentido, me acerque ...

G] :-------------:------------:--------------:--------------:
D] :-------------:------------:---------4----:---------7----:
A] :-------4-----:---------4-0:2-------------:5-------------:
E] :2------------:2-----------:--------------:--------------:
B] :-------------:------------:--------------:--------------:

y con tanto cariño ...

G] :-------------:------------:--------------:--------------:
D] :-------------:------------:--------------:--------------:
A] :-------------:-------4----:2----------4-5:7-----------2-:
E] :5---------0-1:2-----------:--------------:------0-2-4---:
B] :-------------:------------:--------------:--------------:


:Coro:

Ti, comprendi que todas ...

G] :-------------:--------------:--------------:-------------:
D] :-------------:--------------:--------------:-------------:
A] :-------------:--------------:--------------:-------------:
E] :5----5-5-----:2----2-2------:--------------:5----5-5-----:
B] :-------------:--------------:0----0-0------:-------------:

y tomado de tu mano ...

G] :-------------:--------------:--------------:---------------:
D] :-------------:--------------:--------------:---------------:
A] :-------------:--------------:--------------:---------------:
E] :5----5-5-----:2----2-2------:--------------:------------2--:
B] :-------------:--------------:0----0-0------:0----0-2-4-----:

Ti, consegui derribar ...

G] :-------------:--------------:--------------:-------------:
D] :-------------:--------------:--------------:-------------:
A] :-------------:--------------:--------------:-------------:
E] :5----5-5-----:2----2-2------:2----2-2------:5----5-5-----:
B] :-------------:--------------:--------------:-------------:

y se que en este mundo ...

G] :-------------:--------------:--------------:-------------:
D] :-------------:-------------4:--------------:-------------:
A] :-------------:--------------:2--------3-4-5:-------------:
E] :5---------0-1:2----2-2------:--------------:0---0-0---2-4:
B] :-------------:--------------:--------------:-------------:


:Intro:
:Estrofa 2:
:Final = Coro:
:Se repite:


Un saludo enorme a mi gran amiga Carolina Vanessa de Chile, cuidate mucho y
recuerda q te amo un monton y te quiero un monton jejejeje
cuidense y espero q les guste esta cancion...

            
            
Suggest correction
Creating personal tab
Creating personal tab
You can edit any tab online and save it as your Personal.

You can edit, replace or remove any tab part or add personal notes – all changes will be seen only by you.

Personal tabs can be accessed anytime from any device, even offline.
Learn more »
Give kudos to tab author, rate the tab!
1 2 3 4 5
comments
print report bad tab
guest
Wanna post a correction for this tab? Suggest correction