Oops, an error
Loading. Please wait.

Camino Al Cielo bass

28 views 1 this week
no commentswrite comment
1 2 3 4 5
3 more votes to show rating
add to favorites
×
Save as Personal and add changes to this tab that will be seen only by you. Learn more ›
×
You can save this tab as Personal to edit and correct it or add notes. All changes will be seen only by you. Learn more »
launch autoscroll
font size
0
reset
guitar tuner
edit
Autoscroll
slow
fast
+/-
esc
set tempo
stop
    Gm        D        D7          Gm7
G)-------/ -------/ -------/    -------------/
D)-------/ ---4-7-/ -------/    --------5----/
A)-----5-/ -5-----/ -----5-/    ------5---5--/
E)-3-6---/ -------/ -2-5---/    --3-6-------6/
          una es el D7 del verso
          y el D es del coro

esto es lo que hace en cada nota.
es decir si hace un "Gm" haces esa escala y
cuando haga "D" tu haces esa escala


Asi comienza la cancion

Escala1
G)------------------
D)------------------
A)-5-6-5-3--------5~
E)---------6-5-3----

Gm(x2)-D(x4)-Gm(x2)...

Y HACE ESTA SUBIDA de G a D
G)----------
D)----------
A)----------
E)--3-5-6-8-

y continua con D(x2) y sigue la Escala1

Verso 1
           Gm(x1)
Yo estoy contento porque
                 D7(x1)
en mi tengo la vida
         D7(x1)
La vida eterna que
               Gm(x1)
Jesucristo me dio
          Gm(x1)
Yo tengo gozo tengo
              D7(x1)
paz tengo alegría
(Escala1)
Camino al cielo yo voy

Verso 2

Es la alegría que yo
siento aquí en mi vida,
yo no la cambio por la
gloria de este mundo.
Estaba muerto y Jesús [aquí hace otra figura
me dio la vida,      que seria Gm7 y  después sigue con D7(x1)]
(Escala1)
camino al cielo yo voy.

CORO:
          Gm(x2)
Yo tengo gozo
          D(x2)
tengo alegría
          D(x2)
Tengo a Jesús
                       Gm(x2)
tengo la paz tengo la vida
(hace la subida de G a D)  D(x2)
  Yo tengo gozo tengo alegría
(Escala1)
Camino al cielo yo voy.

Y VUELVES A HACER EL PRINCIPIO

VERSO 3 (igual al verso 1)

En Jesucristo yo
encontré la nueva vida
La vida eterna que solo
El te puede dar
Yo estaba muerto y
Jesús me dio la vida
Camino al cielo yo voy

Verso 2

Es la alegría que yo
siento aquí en mi vida,
yo no la cambio por la
gloria de este mundo.
Estaba muerto y Jesús [aquí hace lo mismo que
me dio la vida,        se hizo en el otro verso 2]
(Escala1)
camino al cielo yo voy.

y se vuelve a hacer el COROx2
y después la intro

después viene un solo entre guitarra y bajo y hacen lo mismo

G)---------------------------------------
D)---------------------------------------
A)-----------------------3-3------3-3----
E)-3-3-5-6-3-6-3-6-3-6-3-----6-5------6-5

G)----------
D)----------
A)-----6-6-5
E)-3-6------

G)------------------------
D)------------------------
A)----------------3-3-----
E)6-3-6-3-6-3-6-3-----6-5-

G)---------------
D)---------------
A)-5-6-5-3-------
E)---------6-5-3-

y se repite el COROx2 y la INTRO.

y termina

G)-------------               ----
D)-------------               ----
A)-5-6-5-3-----               ----
E)---------6-5- X3  1,2,3 y   -3~-


Nota:cuando aparece (x1), (x2), (x4) significa la
cantidad de veces que se repite

Bendiciones y disfruten la canción!

            
            
Suggest correction
Creating personal tab
Creating personal tab
You can edit any tab online and save it as your Personal.

You can edit, replace or remove any tab part or add personal notes – all changes will be seen only by you.

Personal tabs can be accessed anytime from any device, even offline.
Learn more »
Give kudos to tab author, rate the tab!
1 2 3 4 5
comments
print report bad tab
guest
Wanna post a correction for this tab? Suggest correction