Oops, an error
Loading. Please wait.

Golpeando Fuerte tab

44 views 1 this week
no commentswrite comment
1 2 3 4 5
3 more votes to show rating
add to favorites
×
Save as Personal and add changes to this tab that will be seen only by you. Learn more ›
×
You can save this tab as Personal to edit and correct it or add notes. All changes will be seen only by you. Learn more »
launch autoscroll
font size
0
reset
how to read this tab
guitar tuner
edit
Autoscroll
slow
fast
+/-
esc
set tempo
stop
Aca les va un tamazo de Puerto Seguro, xq creo q el tab anterior
esta medio herrado en algunas notas? creo y espero q esta
trascripción sean mas o menos las notas del tema? con el toque
de la introducción mas o menos parecida igual. Espero q este
bien- las notas pueden ir en Quintas (5) para que suene
 mas parecido, eso si; con eléctrica o como lo deseen.

Intro:

e|--------------------------------------------------
B|--------------------------------------------------
G|--------------------------------------------------  El primer reglón
D|--------2-2---------------------2-2---------------  de la 1ra y 2da
A|--2-5-2-0-0-2-2-2-2-2-2---2-5-2-0-0-2-2-2-2-2-2---  estrofa va con
E|--0-3-0-----3-0-0-0-0-0---0-3-0-----3-0-0-0-0-0---  el Intro de fondo

Piénsalo bien, oye su voz
C                     G
Vas por el mundo, buscando respuesta
     A          B       Em
Sin encontrar una solución.


Piénsalo bien, oye su voz
C                      G
Porque el que vive, está a la puerta
     A              B     Em
Golpeando fuerte en tu corazón.

              A               Em
Tienes que volver a nacer de nuevo
              A           Em
Tienes que tomar una decisión
             C                  G
Tienes que creer y empezar de cero
          A              B
Para olvidar todo ese dolor...

*CORO*
C               G
Oh oh oh oh oh, oh oh oh oh oh
A                    B      Em
Golpeando fuerte en tu corazón
C               G
Oh oh oh oh oh, oh oh oh oh oh
A                    B      Em
Golpeando fuerte en tu corazón.


e|--------------------------------------------------
B|--------------------------------------------------
G|--------------------------------------------------
D|--------2-2---------------------2-2---------------
A|--2-5-2-0-0-2-2-2-2-2-2---2-5-2-0-0-2-2-2-2-2-2---
E|--0-3-0-----3-0-0-0-0-0---0-3-0-----3-0-0-0-0-0---

Bueno gente esto ha sido todo. Espero que salga y
cualkier cosa escuchar el tema o conectarse con migo o
escribirme.. Adiós y Dios los Bendiga a Todos por igual
Desde Villa La Angostura, Nqn, Arg.
Jaime. A. Soto
Jimmy_kpo100pre@ / jaimevla@

            
            
Suggest correction
Creating personal tab
Creating personal tab
You can edit any tab online and save it as your Personal.

You can edit, replace or remove any tab part or add personal notes – all changes will be seen only by you.

Personal tabs can be accessed anytime from any device, even offline.
Learn more »
Give kudos to tab author, rate the tab!
1 2 3 4 5
comments
print report bad tab
guest
Wanna post a correction for this tab? Suggest correction