Oops, an error
Loading. Please wait.

Otro Color bass

17 views 1 this week
no commentswrite comment
1 2 3 4 5
3 more votes to show rating
add to favorites
×
Save as Personal and add changes to this tab that will be seen only by you. Learn more ›
×
You can save this tab as Personal to edit and correct it or add notes. All changes will be seen only by you. Learn more »
launch autoscroll
font size
0
reset
guitar tuner
edit
Autoscroll
slow
fast
+/-
esc
set tempo
stop
Aca les mando este tema de Puerto Seguro, en bajo, lo saque
yo mismo, estuve un dia entero per, valio la pena
no es tan complicado como parece escuchen el tema y luego lo 
tocan para sacar el ritmo saludos a todos Dios los Bendiga


Intro
------------------------------------------------------------
----------------------------7-7-7---------------------------
-7-7-7-2-2-2-9-9-9-----9-9-9-----7-5-4-4-4-4-4-9-9-9-----7-7
------------------9-9-9-----------------------------7-7-7-7-

Se que hay un lugar....

------------------------------------------------------------
----------------------------7-7-7---------------------------
-7-7-7-2-2-2-9-9-9-----9-9-9-----7-5-4-4-4-4-4-9-9-9-----7-7
------------------9-9-9-----------------------------7-7-7-7-

Eres tan real 

------------------------------------------------------------
----------------------------7-7-7---------------------------
-7-7-7-2-2-2-9-9-9-----9-9-9-----7-5-4-4-4-4-4-9-9-9-----7-7
------------------9-9-9-----------------------------7-7-7-7-

Aca cambia

------------------------------------------------------------
------------------------------------------------------------
-5-5-5-4-4-4-3-3-3-2-2-2-11-11-11-----9-9-9-11-11-11--------
---------------------------------9-9-9----------------------

El coro: 
En mi caso yo toco el bajo y canto he decidido no
agregarle el coro, si alguien lo quiere me manda un mail y 
le mando el coro.-

------------------------------------------------------------
----------------------------7-7-7---------------------------
-7-7-7-2-2-2-9-9-9-----9-9-9-----7-5-4-4-4-4-4-9-9-9-----7-7
------------------9-9-9-----------------------------7-7-7-7-

El Final de la cancion nosotros lo adornamos con la misma intro
y en algunas partes decimos Tu Diste a mi vida otro color
llenaste el vacio que habia en mi corazon... en mi corazon FIN

            
            
Suggest correction
Creating personal tab
Creating personal tab
You can edit any tab online and save it as your Personal.

You can edit, replace or remove any tab part or add personal notes – all changes will be seen only by you.

Personal tabs can be accessed anytime from any device, even offline.
Learn more »
Give kudos to tab author, rate the tab!
1 2 3 4 5
comments
print report bad tab
guest
Wanna post a correction for this tab? Suggest correction