Oops, an error
Loading. Please wait.

Viento Recio tab

version 2
version 2

Whole song

20 views 1 this week
no commentswrite comment
1 2 3 4 5
3 more votes to show rating
add to favorites
×
Save as Personal and add changes to this tab that will be seen only by you. Learn more ›
×
You can save this tab as Personal to edit and correct it or add notes. All changes will be seen only by you. Learn more »
launch autoscroll
font size
0
reset
how to read this tab
guitar tuner
edit
Autoscroll
slow
fast
+/-
esc
set tempo
stop
INTRO: Bm, G, E.
la (x) significa que debes pisar y tocar la cuerda
el (0) siginifica tocar la cuerda suelta
este signo (^) SIGINIFICA HACIA ABAJO.

Este el el INTRO, PUNTEADO o arpegeado
repetir 3 veces...


Mi ||---------|---------|---------|---------^  1
Si ||---------|---------|----0----|---------^  2
Sol||---------|---------|----0----|---------^  3
Re ||---------|---------|---------|----x----^  4
La ||---------|----x----|---------|---------^  5
MI ||---------|---------|---------|---------|  6

|---------|---------|---------^   |----|---------^
|---------|---------|---------^   |----|---------^
|---------|---------|---------^ > |----|---------^
|---------|---------|---------^ > |----|----x----^
|---------|---------|----x----^   |----|----x----^
|----x----|---------|---------^   |----|---------|
[3] traste     [4]       [5]        [3]  (4 TRASTE) ...hasta aquí

después sigue esto:

Mi ||---------|---------|---------|---------^  1
Si ||---------|---------|----x----|---------^  2
Sol||---------|---------|----0----|---------^  3
Re ||---------|---------|---------|----x----^  4
La ||---------|----x----|---------|---------^  5
MI ||---------|---------|---------|---------|  6


(HACER EL INTRO DESDE ESTA PARTE)
(Bm   G          Bm   G            Bm   G       E)
   Todos miraban como en las nubes va a desaparecer,
(Bm   G         Bm   G           Bm    G           E) (HASTA ACÁ)
   pero sabían que en poco tiempo lo que iba a suceder.
Bm     G  Bm  G           Bm  G           E
  Los 120   estaban juntos  esperando el poder,
Bm  G         Bm  G          Bm    G             E
  y de repente  cayó del cielo como un resplandor fue.

CORO:
     D      A     Bm                  F#
     Viento Recio sopla de nuevo en mi ser,
     G              F#m            A
     Espíritu Santo ven, sopla otra vez,
     F#
     Una, una y otra vez.

     Bm   G    Bm          G
   //Ven, ven, ven como un rió.
     Bm   G    E
     Ven, ven, oh Santo Espíritu.//

 INTRO: PUNTEADO 2 veces...

  Bm           G
//Sopla, sopla Viento Recio,
  Bm          G
  Sopla fuertemente el tiempo,
  Bm          G           E
  Ven apura y no te vayas nunca.//

coro, INTRO, coro...

la parte de la punteadas esta:

1||-------------------------------------------------
2||--------5----------5----------5------------5577-9
3||----7-7---7-6-7--7---7-6-7--7---7-6-4-6677-------
4||-------------------------------------------------
5||-------------------------------------------------
6||-------------------------------------------------

1||-10-10-12-10-9-10--10-12-10-9-10--10-14-10-9-10--10-12-10-9-10

1||-12-10-9-----------------------------------
2||---------12-10-9---------------------------
3||-----------------12-11-9-------------------
4||-------------------------12-11-9-----------
5||---------------------------------12--------

no entiendo porque reemplazaron esta trasncripción
TRATE DE HACERLA LO MÁS ENTENDIBLE POSIBLE...
cualquier duda escríbeme a mi correo: canequin_7@
BENDICIONES PARA TODOS...
y no se OLVIDEN CALIFICAR ESTA TRANSCRIPCIÓN
SALUDOS A todos mis amigos y amigas de la iglesia shekinah cbba

            
            
Suggest correction
Creating personal tab
Creating personal tab
You can edit any tab online and save it as your Personal.

You can edit, replace or remove any tab part or add personal notes – all changes will be seen only by you.

Personal tabs can be accessed anytime from any device, even offline.
Learn more »
Give kudos to tab author, rate the tab!
1 2 3 4 5
comments
print report bad tab
guest
Wanna post a correction for this tab? Suggest correction