Oops, an error
Loading. Please wait.

Ransom Letter tab

version 1
version 1

Whole song

826 views 1 this week
1 commentread comment
1 2 3 4 5
1 last vote to show rating
add to favorites
×
Save as Personal and add changes to this tab that will be seen only by you. Learn more ›
×
You can save this tab as Personal to edit and correct it or add notes. All changes will be seen only by you. Learn more »
launch autoscroll
font size
0
reset
how to read this tab
guitar tuner
edit
Autoscroll
slow
fast
+/-
esc
set tempo
stop
E|-----------------------------------------------|
B|-----------------------------------------------|
G|-----------------------------------------------|    INTRO
D|-7-7-7-----6-6-6----7-7-7---6-6-6--------------|
A|-7-7-7-----6-6-6----7-7-7---6-6-6--------------|
E|-5-5-5-----4-4-4----5-5-5---4-4-4--------------|
    x11       x11      x11     x5

E|------------------------------------------------|
B|------------------------------------------------|
G|------------------------------------------------|   VERSE x2
D|-7-7-7-7----6-6-6-6---4-4-4-4---2-2-2-2---------|
A|-7-7-7-7----6-6-6-6---4-4-4-4---2-2-2-2---------|
E|-5-5-5-5----4-4-4-4---2-2-2-2---0-0-0-0---------|
   X X X      X X X     X X X     X X X

CHORUS
E|----------------------------------------------------------------------|
B|----------------------------------------------------------------------|
G|----------------------7-7-7-7----6-6-6-6------------------------------|
D|-7-7-7-7----6-6-6-6---7-7-7-7----6-6-6-6---4-4-4-4--2-2-2-2-----------|
A|-7-7-7-7----6-6-6-6---5-5-5-5----4-4-4-4---4-4-4-4--2-2-2-2-----------|
E|-5-5-5-5----4-4-4-4------------------------2-2-2-2--0-0-0-0-----------|
CHORUS
E|----------------------------------------------------------------------|
B|----------------------------------------------------------------------|
G|---7-7-7-7----6-6-6-6-----------------------7-7-7-7-------------------|
D|---7-7-7-7----6-6-6-6---4-4-4-4--2-2-2-2----7-7-7-7----7-7-7-7--------|
A|---5-5-5-5----4-4-4-4---4-4-4-4--2-2-2-2----5-5-5-5----7-7-7-7--------|
E|------------------------2-2-2-2--0-0-0-0---------------5-5-5-5--------|

E|------------------------------------------------|
B|------------------------------------------------|
G|------------------------------------------------|   VERSE x2
D|-7-7-7-7----6-6-6-6---4-4-4-4---2-2-2-2---------|
A|-7-7-7-7----6-6-6-6---4-4-4-4---2-2-2-2---------|
E|-5-5-5-5----4-4-4-4---2-2-2-2---0-0-0-0---------|
   X X X      X X X     X X X     X X X

CHORUS
E|----------------------------------------------------------------------|
B|----------------------------------------------------------------------|
G|----------------------7-7-7-7----6-6-6-6------------------------------|
D|-7-7-7-7----6-6-6-6---7-7-7-7----6-6-6-6---4-4-4-4--2-2-2-2-----------|
A|-7-7-7-7----6-6-6-6---5-5-5-5----4-4-4-4---4-4-4-4--2-2-2-2-----------|
E|-5-5-5-5----4-4-4-4------------------------2-2-2-2--0-0-0-0-----------|
CHORUS
E|----------------------------------------------------------------------|
B|----------------------------------------------------------------------|
G|---7-7-7-7----6-6-6-6-----------------------7-7-7-7-------------------|
D|---7-7-7-7----6-6-6-6---4-4-4-4--2-2-2-2----7-7-7-7----7-7-7-7--------|
A|---5-5-5-5----4-4-4-4---4-4-4-4--2-2-2-2----5-5-5-5----7-7-7-7--------|
E|------------------------2-2-2-2--0-0-0-0---------------5-5-5-5--------|

BRIDGE
E|----------------------------------------------------------------------|
B|----------------------------------------------------------------------|
G|-----------7-7-7-7----6-6-6-6-----------------------------------------|
D|-----------7-7-7-7----6-6-6-6--------2-2-2-2--------------------------|
A|-----------5-5-5-5----4-4-4-4--------2-2-2-2--------------------------|
E|-------------------------------------0-0-0-0--------------------------|

CHORUS
E|-------------------------------------------------------------------------|
B|-------------------------------------------------------------------------|
G|----------------------7-7-7-7----6-6-6-6---------------------------------|
D|--7-7-7-7---6-6-6-6---7-7-7-7----6-6-6-6---4-4-4-4--2-2-2-2--------------|
A|--7-7-7-7---6-6-6-6---5-5-5-5----4-4-4-4---4-4-4-4--2-2-2-2--------------|
E|--5-5-5-5---4-4-4-4------------------------2-2-2-2--0-0-0-0--------------|
    x x x x   x x x x
E|----------------------------------------------------------------------|
B|----------------------------------------------------------------------|
G|---7-7-7-7----6-6-6-6-----------------------7-7-7-7-------------------|
D|---7-7-7-7----6-6-6-6---4-4-4-4--2-2-2-2----7-7-7-7----7-7-7-7--------|
A|---5-5-5-5----4-4-4-4---4-4-4-4--2-2-2-2----5-5-5-5----7-7-7-7--------|
E|------------------------2-2-2-2--0-0-0-0---------------5-5-5-5--------|

OUTRO
E|-----------------------------------------------|
B|-----------------------------------------------|
G|-----------------------------------------------|
D|-7-7-7-----6-6-6----7-7-7---6-6-6--------------|
A|-7-7-7-----6-6-6----7-7-7---6-6-6--------------|
E|-5-5-5-----4-4-4----5-5-5---4-4-4--------------|
    x10       x10      x10     x5

this is my very first tab, im a not a very pro guitarist but i hope this will help you 
oh you gotta listen to the palm mutes and the strumming of the song as well there's 
a lead guitar for this song, i'll probably tab it later on. CHEERS

            
            
Suggest correction
Creating personal tab
Creating personal tab
You can edit any tab online and save it as your Personal.

You can edit, replace or remove any tab part or add personal notes – all changes will be seen only by you.

Personal tabs can be accessed anytime from any device, even offline.
Learn more »
Give kudos to tab author, rate the tab!
1 2 3 4 5
comments
print report bad tab
1 comment total.
0 reply
leafar36 10 Jul 23, 2011 05:00 AM

the duration for each power chord is a lil confusing @_@

guest
Wanna post a correction for this tab? Suggest correction