Oops, an error
Loading. Please wait.

High Five Swan Dive Nose Dive tab

version 1
version 1

Whole song

7,506 views 3 this week
no commentswrite comment
1 2 3 4 5
x 5
add to favorites
×
Save as Personal and add changes to this tab that will be seen only by you. Learn more ›
×
You can save this tab as Personal to edit and correct it or add notes. All changes will be seen only by you. Learn more »
launch autoscroll
font size
0
reset
how to read this tab
guitar tuner
edit
Autoscroll
slow
fast
+/-
esc
set tempo
stop
Author
BAND: PULLED APART BY HORSES
TRACK: HIGH FIVE, SWAN DIVE, NOSE DIVE
TUNING: DROP D (DADGBe)
TABEEEE: JIMBO WAHOO

www.pulledapartbyhorses.com
www.myspace.com/pulledapartbyhorses


INTRO
e|-------------------------------------------------------|
B|-------------------------------------------------------|
G|-------------------------------------------------------|
D|-------------------------------------------------------| X 4
A|-9h12-9h12-9h12-9-------9h12-9h12-9h12-14h12-----------|
D|-0--0-0--0-0--0-0-14----0--0--0--0--0--0--0------------|


e|-------------------------------------------------------|
B|-------------------------------------------------------|
G|-------------------------------------------------------|
D|-9-9-9-9-9-9-9-1010------------------------------------| Tenth Fret.
A|-9-9-9-9-9-9-9-1010------------------------------------|
D|-9-9-9-9-9-9-9-1010------------------------------------|

VERSE
(high five! swan dive! nose dive!)
e|-------------------------------------------------------|
B|-------------------------------------------------------|
G|-------------------------------------------------------|
D|-------------------------------------------------------|
A|-9h12-9h12-9h12-14-12-9h12-9h12-9h12-9-----------------|
D|-0--0-0--0-0--0-0--0--0--0--0--0--0--0-14--------------|

                                                             X3
(i'll make you dance with my balls of fire!!)
e|-------------------------------------------------------|
B|-------------------------------------------------------|
G|-------------------------------------------------------|
D|-9-9-9-9-9-9-9-1010------------------------------------|
A|-9-9-9-9-9-9-9-1010------------------------------------|
D|-9-9-9-9-9-9-9-1010------------------------------------|


Next Bit

e|-------------------------------------------------------|
B|-3-3-3-3h2-2-2-----------------------------------------|
G|-4-4-4-4h3-3-3-----------------------------------------|
D|-5-5-5-5h4-4-4-2h02h0----------------------------------|
A|-5-5-5-5h4-4-4-2h02h0----------------------------------|
D|-5-5-5-5h4-4-4-2h02h0----------------------------------|

                                                           X8
e|-------------------------------------------------------|
B|-------------------------------------------------------|
G|-------------------------------------------------------|
D|-9-9-9-9-9-9-9-1010------------------------------------|
A|-9-9-9-9-9-9-9-1010------------------------------------|
D|-9-9-9-9-9-9-9-1010------------------------------------|


WIDDLY BIT

e|-------------------------------------------------------|
B|-------------------------------------------------------|
G|-11h14-11h14-11h14-11----11h14-11h14-11h14-16h14-------|
D|---------------------14--------------------------------|  X16
A|-------------------------------------------------------|
D|-------------------------------------------------------|

HUH!! (GO MENTAL!!)

e|-------------------------------------------------------|
B|-------------------------------------------------------|
G|-------------------------------------------------------|
D|-4h7-4h7-4h7-4h7---------------------------------------|
A|-4h7-4h7-4h7-4h7---------------------------------------|
D|-4h7-4h7-4h7-4h7---------------------------------------|

(may be wrong but i think one guitar is playing this)

e|-------------------------------------------------------|
B|-------------------------------------------------------|
G|-------------------------------------------------------|
D|-------------------------------------------------------|
A|-------------------------------------------------------|
D|-4h7-4h7-4h7-3-0--4h7-4h7-4h7-9-7----------------------|


END (i'll make you dance....) slow
e|-------------------------------------------------------|
B|-------------------------------------------------------|
G|-------------------------------------------------------|
D|-9-9-9-9-9-9-9-1010------------------------------------|
A|-9-9-9-9-9-9-9-1010------------------------------------|
D|-9-9-9-9-9-9-9-1010------------------------------------|

            
            
Suggest correction
Creating personal tab
Creating personal tab
You can edit any tab online and save it as your Personal.

You can edit, replace or remove any tab part or add personal notes – all changes will be seen only by you.

Personal tabs can be accessed anytime from any device, even offline.
Learn more »
comments
print report bad tab
guest
You may want to rate the tab now too:
select rating
Wanna post a correction for this tab? Suggest correction