Oops, an error
Loading. Please wait.

Huber Breeze bass

by Pulley
454 views 3 this week
1 commentread comment
1 2 3 4 5
1 last vote to show rating
add to favorites
×
Save as Personal and add changes to this tab that will be seen only by you. Learn more ›
×
You can save this tab as Personal to edit and correct it or add notes. All changes will be seen only by you. Learn more »
launch autoscroll
font size
0
reset
guitar tuner
edit
Autoscroll
slow
fast
+/-
esc
set tempo
stop
Author
++++++++++++++++++++++++
| Pulley- Huber Breeze |
++++++++++++++++++++++++


"Takes me to a better place..."


Tuning: EADG


Intro
1.
G|--9~----12-10--9-9~----10-9-7-5~----7-5-4-|
D|-10~----10-10-10-7~----7--7-7-3~----5-5-5-|
A|------------------------------------------|
E|------------------------------------------|

2.
G|---------------------------------|
D|-----------------------/10101010-|
A|-33333333-33333333-3333----------|
E|---------------------------------|

Verse
"Stare at you and I cant believe..."
3.
G|-------------------------------------------------------------------------|
D|-------------------------------------------------------------------------|
A|-33333333-33333333-33333333-33333333-33333333-33333333-------------------|
E|-------------------------------------------------------33333333-33333333-|

"Covered up those memories..."
4.
G|--------------------------------------------------------|
D|--------------------------------------------------------|
A|-33333333-33333333-33333333-33333333-33333333--------33-|
E|----------------------------------------------333333----|

Chorus
"I will walk away..."
5.
G|-------------------------------------------------------------------------|
D|-3333x----3333x----22222222----------3333x----3333x----------------------|
A|----------------------------33333333-------------------00000000----------|
E|----------------------------------------------------------------33333333-|

"Stop trying..."
6.
G|-------------------------------------------------------|
D|-------------------------------------------------------|
A|-------------------00000000----------------------------|
E|-11111111-11111111----------33333333-11111111-33333333-|

Verse
"Voices and melody..."
7.
G|-------------------------------------------------------------------------|
D|-------------------33333333-33333333-------------------------------------|
A|-33333333-33333333-------------------33333333-33333333-------------------|
E|-------------------------------------------------------33333333-33333333-|

"Covered up those memories..."
8.
G|--------------------------------------------------------|
D|--------------------------------------------------------|
A|-33333333-33333333-------------------33333333--------33-|
E|-------------------11111111-11111111----------333333----|

Chorus
"I will walk away..."
9.
G|-------------------------------------------------------------------------|
D|-3333x----3333x----22222222----------3333x----3333x----------------------|
A|----------------------------33333333-------------------00000000----------|
E|----------------------------------------------------------------33333333-|

"Stop trying..."
10.
G|-------------------------------------|
D|-------------------------------------|
A|-------------------00000000----------|
E|-11111111-11111111----------33333333-|

Bridge
11.
G|-------------------------------------------------------------------------|
D|-------------------------------------------------------------------------|
A|-11111111-11111111-------------------11111111-11111111-------------------|
E|-------------------11111111-11111111-------------------33333333-11111111-|

12.
G|-------------------------------------------------------|
D|-------------------------------------------------------|
A|-11111111-11111111----------------------------111-3-3--|
E|-------------------11111111-11111111-33333333----------|

Chorus
"I will walk away..."
13.
G|-------------------------------------------------------------------------|
D|-3333x----3333x----22222222----------3333x----3333x-------------55555555-|
A|----------------------------33333333-------------------00000000----------|
E|-------------------------------------------------------------------------|

"Stop trying..."
14.
G|-------------------------------------------------------|
D|-33333333-33333333-------------------------------------|
A|-------------------00000000----------------------------|
E|----------------------------33333333-11111111-33333333-|

Outro
15.
G|------------------|
D|------------------|
A|-3~---------------|
E|------------------|

16.
G|--9~----12-10--9-9~----10-9-7-5~----7-5-4-|
D|-10~----10-10-10-7~----7--7-7-3~----5-5-5-|
A|------------------------------------------|
E|------------------------------------------|

17.
G|--------------------------------------|
D|-------------------22-23532-----------|
A|-33333333-33333333---3------3~--------|
E|--------------------------------------|


Please rate thanks!!


Lyrics:

Stare at you and I can't believe a song inside your head
Words to remember 
Where to begin, when will you find them?
Covered up those memories that run inside you head, the sound isn't better
Do you remember 

I will walk away from a disease, that's full of love and hate?
Time to time I write these rhymes, it takes me to a better place
Stop trying, never try again

Voices and melody the struggle starts within
Where will it take you, when will it end?
It always seems to cover up those memories that run inside your head
The sound isn't better, do you remember?



+++++++++++++++++++++++++++++++++
| Raileff                       |
| Underground__Dora@Hotmail.Com |
+++++++++++++++++++++++++++++++++

            
            
Suggest correction
Creating personal tab
Creating personal tab
You can edit any tab online and save it as your Personal.

You can edit, replace or remove any tab part or add personal notes – all changes will be seen only by you.

Personal tabs can be accessed anytime from any device, even offline.
Learn more »
Give kudos to tab author, rate the tab!
1 2 3 4 5
comments
print report bad tab
1 comment total.
0 reply
BlenderBR 18,046 Aug 18, 2014 03:30 PM, edited at 07:31 pm

Again, another great bass tab from Pulley made by you. Perfect one. Thanks! :)

guest
You may want to rate the tab now too:
select rating
Wanna post a correction for this tab? Suggest correction