Oops, an error
Loading. Please wait.

Insects Destroy bass

version 1
version 1

Whole song

Interactive

by Pulley
484 views 3 this week
no commentswrite comment
1 2 3 4 5
2 more votes to show rating
add to favorites
×
Save as Personal and add changes to this tab that will be seen only by you. Learn more ›
×
You can save this tab as Personal to edit and correct it or add notes. All changes will be seen only by you. Learn more »
launch autoscroll
font size
0
reset
guitar tuner
edit
Autoscroll
slow
fast
+/-
esc
set tempo
stop
Author
+++++++++++++++++++++++++++
| Pulley- Insects Destroy |
+++++++++++++++++++++++++++


"See the sun drop colors of red..."

Tuning: Half-Step Down (EbADG)


Intro
1.
G||------------------------|
D||------------------------|
A||----------11111x--------|
Eb|-00000000---------------|

2.
G||-------------------------------------------------------------------------------|
D||----1-1111--------------1-1111-333----------1-1111-----------------------------|
A||-333-------111-------333----------1-1111-333-------111-------------------------|
Eb|--------------4-4444----------------------------------4-4444-55555555-44444444-|

3.
G||-------------------|
D||-------------------|
A||-33333333-33333333-|
Eb|-------------------|

Verse
"Im looking for a friend today..."
4.
G||-------------------------------------------------------------------------|
D||-------------------11111111----------------------------------------------|
A||-33333333-33333333----------1111111--33333333-33333333----------1111111--|
Eb|-----------------------------------4-------------------00000000--------4-|

"I gave my all to the system..."
5.
G||----------------------------------------------------------------------------------|
D||-------------------11111111-------------------------------------------------------|
A||-33333131-33333131----------1111111--33333131-33333131----------------------------|
Eb|-----------------------------------4-------------------00000000-44444444-44444444-|

Chorus
"You never gave any credibility..."
6.
G||-------------------------------------------------------------------------------|
D||----1-1111--------------1-1111-333----------1-1111-----------------------------|
A||-333-------111-------333----------1-1111-333-------111-------------------------|
Eb|--------------4-4444----------------------------------4-4444-55555555-4x-------|

Outro
7.
G||-------------------------------------------------------------------------|
D||-------------------11111111----------------------------------------------|
A||-33333333-33333333----------1111111--33333333-33333333----------11111111-|
Eb|-----------------------------------4-------------------44444444----------|

Verse
"You sold your soul to the man..."
8.
G||-------------------------------------------------------------------------|
D||-------------------11111111----------------------------------------------|
A||-33333333-33333333----------1111111--33333333-33333333----------1111111--|
Eb|-----------------------------------4-------------------00000000--------4-|

"Never goind to let another day die..."
9.
G||----------------------------------------------------------------------------------|
D||-------------------11111111-------------------------------------------------------|
A||-33333131-33333131----------1111111--33333131-33333131----------------------------|
Eb|-----------------------------------4-------------------00000000-44444444-44444444-|

Chorus
"You never gave any credibility..."
10.
G||-------------------------------------------------------------------------------|
D||----1-1111--------------1-1111-333----------1-1111-----------------------------|
A||-333-------111-------333----------1-1111-333-------111-------------------------|
Eb|--------------4-4444----------------------------------4-4444-55555555-4x-------|

Bridge
11.
G||-----1~-0~-------------------1~-0~---------------------------------|
D||---------------111---------------------111-------11111111-33333333-|
A||-333-------3~-----1-1111-333-------3~-----1-1111-------------------|
Eb|-------------------------------------------------------------------|

12.
G||-----1~-0~-------------------1~-0~---------------------------------|
D||---------------111---------------------111-------11111111----------|
A||-333-------3~-----1-1111-333-------3~-----1-1111-------------------|
Eb|----------------------------------------------------------44444444-|

13.
G||-------------------|
D||-------------------|
A||-3~----------------|
Eb|-------------------|

"Another tool for the melting pot..."
14.
G||-----------------------------------|
D||-----------------------------------|
A||-----------------------------------|
Eb|-----------------44444444-44444444-|

15.
G||-------------------------------------------|
D||------------------------------------11-----|
A||-----------------33x-------33x---------11--|
Eb|----------------------22x-------44x--------|

Chorus
"You never gave any credibility..."
16.
G||---------------------------------------------------------------------------------|
D||----1-1111--------------1-1111-333----------1-1111--------------1-1111-310--10---|
A||-333-------111-------333----------1-1111-333-------111-------333----------3---31-|
Eb|--------------4-4444----------------------------------4-4444---------------------|

"For a vision given to the enemy..."
17.
G||------------------------------------------------------------|
D||----1-1111-333----------1-1111------------------------------|
A||-333----------1-1111-333-------111--------------------------|
Eb|----------------------------------4-4444-55555555-4x--------|


Lyrics:


I'm looking for a friend today
Another victim just like me
A lunatic a loser a freak
Another casualty from a fucked up society
I gave my all to the system
Half my life still in question
All about the money and power
All the greed they've devoured

You never gave any credibility for a vision given to the enemy
And on the faces of humanity
A stone's eye throw for a man
On a pedestal

You sold your soul to the man
Another deal a deal gone bad
Another seed that never gets planted
Corporate insects destroy our planet
Never going to let another day die
My friend you and I
Feel the heat from the fire outside
Burning hot still alive

I keep it bottled inside me
You keep it bottled inside you

See the sun drop colours of red
Broken bones for a mouth well fed
Bring back a real train of thought
Another tool for the melting pot



+++++++++++++++++++++++++++++++++
| RaiLeff                       |
| Underground__Dora@Hotmail.Com |
+++++++++++++++++++++++++++++++++

            
            
Suggest correction
Creating personal tab
Creating personal tab
You can edit any tab online and save it as your Personal.

You can edit, replace or remove any tab part or add personal notes – all changes will be seen only by you.

Personal tabs can be accessed anytime from any device, even offline.
Learn more »
Give kudos to tab author, rate the tab!
1 2 3 4 5
comments
print report bad tab
guest
You may want to rate the tab now too:
select rating
Wanna post a correction for this tab? Suggest correction